Song name
# A B C D E F G H I J K L M N O P Q R S T U V W X Y Z

Brand New - Luca Reprise tab

Band: Brand New
Song: Luca (Reprise)

standard tuning

intro/verse
E|-------------------------------------------------|
B|---------1-----------1-----------1-----------1---|
G|-----2-----2-----2-----2-----2-----2-----2-----2-|  
D|---2---2-------0---0-------0---0-------0---0-----|
A|-0-----------2-----------3-----------2-----------|
E|-------------------------------------------------|

chorus
E|-------------------------------------------------------------------------|
B|---------1-----------1-----------0-----------0-----------0-----------0---|
G|-----0-----0-----0-----0-----0-----0-----0-----0-----0-----0-----0-----0-|  
D|---2---2-------2---2-------2---2-------2---2-------2---2-------2---2-----|
A|-3-----------3-----------------------------------------------------------|
E|-------------------------0-----------0-----------0-----------0-----------|

repeat these patterns throughout
Tap to rate this tab
# A B C D E F G H I J K L M N O P Q R S T U V W X Y Z