Song name
# A B C D E F G H I J K L M N O P Q R S T U V W X Y Z

Brand New - You Wont Know tab

Artist: Brand New
Song: You Won’t Know
Album: The Devil and God are Raging Inside Me
Tuning: Standard
Tabbed by: Cody 
Contact me at xyour_favorite_wordsx@yahoo.com
 Guitar 1
|--------------------------------------------|
|--------8p7-------7h8-------8p7-------7h8p7-|
|----9-9-------9-9--------9-9-------9-9------|
|--------------------------------------------|
|--------------------------------------------|
|--------------------------------------------|
|                                            |x9 :01-1:38
|--------------------------------------------|
|--------8p7-------7h8-------8p7-------7h8p7-|
|--------------------------------------------|	
|--10-10-----10-10-----10-10-----10-10-------|
|--------------------------------------------|
|--------------------------------------------|
  Guitar 2
|------------------------------------------------------------------|
|------------------------------------------------------------------|
|-9-9-9-9-9-9-9-9-9-9-9-9-9-9-9-9-9-9-9-9-9-9-9-9-9-9-9-9-9-9-9-9--|
|-x-x-x-x-x-x-x-x-x-x-x-x-x-x-x-x-x-x-x-x-x-x-x-x-x-x-x-x-x-x-x-x--|x6
|-7-7-7-7-7-7-7-7-7-7-7-7-7-7-7-7-7-7-7-7-7-7-7-7-7-7-7-7-7-7-7-7--|
|------------------------------------------------------------------|
|
|  Guitar 1 (comes in 4th time)
|--------------------------------------------|
|--------8p7-------7h8-------8p7-------7h8p7-|
|----9-9-------9-9--------9-9-------9-9------|
|--------------------------------------------|
|--------------------------------------------|
|--------------------------------------------|
|                                            |x2
|--------------------------------------------|
|--------8p7-------7h8-------8p7-------7h8p7-|
|--------------------------------------------|	
|--10-10-----10-10-----10-10-----10-10-------|
|--------------------------------------------|
|--------------------------------------------|

  Guitar 2
|------------------------------------------------------------------|
|------------------------------------------------------------------|
|-9-9-9-9-9-9-9-9-9-9-9-9-9-9-9-9-9-9-9-9-9-9-9-9-9-9-9-9-9-9-9-9--|
|-x-x-x-x-x-x-x-x-x-x-x-x-x-x-x-x-x-x-x-x-x-x-x-x-x-x-x-x-x-x-x-x--|x6
|-7-7-7-7-7-7-7-7-7-7-7-7-7-7-7-7-7-7-7-7-7-7-7-7-7-7-7-7-7-7-7-7--|
|------------------------------------------------------------------|
|
|  Guitar 1 (comes in 4th time)
|--------------------------------------------|
|--------8p7-------7h8-------8p7-------7h8p7-|
|----9-9-------9-9--------9-9-------9-9------|
|--------------------------------------------|
|--------------------------------------------|
|--------------------------------------------|
|                                            |x2
|--------------------------------------------|
|--------8p7-------7h8-------8p7-------7h8p7-|
|--------------------------------------------|	
|--10-10-----10-10-----10-10-----10-10-------|
|--------------------------------------------|
|--------------------------------------------|



 Guitar 2            Guitar 1
|------------------|-|----|
|------------------|-|----|
|------------------|-|-7b-|
|-2222222222222222-|-|----|3:28-3:32
|-2222222222222222-|-|----|
|-0000000000000000-|-|----|

  Guitar 2
|------------------|
|------------------|
|------------------|
|-2222222222222222-|3:32-3:37
|-2222222222222222-|
|-0000000000000000-|

 Guitar 2
|-----------------------|
|-----------------------|
|-----9-9-9-9---9-------|
|-----9-9-9-9---9-------|x4 3:37-3:46
|-7-7-7---------7-7-----|
|-----------------------|

 Guitar 2
|---------------------------------------------------------------|
|-0-0------------0-0--------------------------------------------|
|-----0-0------------0-0--------------0-0------------0-0--------|3:46-4:04
|---------2-2--2---------2-2--2---2-2-----2-2-2--2-2-----2-2--2-|x2
|---------------------------------------------------------------|
|---------------------------------------------------------------|
|
| Guitar 1 (comes in second time)
|---------------------------------------------|
|-12-12-----------------12-12-----------------|
|-------12-12-----------------12-12-----------|
|-------------14-14--14------------14-14--14--|
|---------------------------------------------|
|---------------------------------------------|
|                                             |x1 3:55-4:04
|---------------------------------------------|
|---------------------------------------------|
|-------12-12------------------12-12----------|
|-14-14-------14-14--14--14-14-------14-14--14|
|---------------------------------------------|
|---------------------------------------------|


  Guitar 1 
|--------------------------------------------|
|--------8p7-------7h8-------8p7-------7h8p7-|
|----9-9-------9-9--------9-9-------9-9------|
|--------------------------------------------|
|--------------------------------------------|
|--------------------------------------------|
|                                            |x10 4:05-END
|--------------------------------------------|
|--------8p7-------7h8-------8p7-------7h8p7-|
|--------------------------------------------|	
|--10-10-----10-10-----10-10-----10-10-------|
|--------------------------------------------|
|--------------------------------------------|
Tap to rate this tab
 
# A B C D E F G H I J K L M N O P Q R S T U V W X Y Z