Song name
# A B C D E F G H I J K L M N O P Q R S T U V W X Y Z

Brand New - Aloc-acoc tab

Help us improve GuitareTab! Take a short survey!
-------------------------------------------------------------------------------
			     aloC-acoC - Brand New
-------------------------------------------------------------------------------
Tabbed by: Igor10k
Email: igor1043k@gmail.com

Tuning: Standart

Intro:
e|-----------------------------------|
B|-----------------------------------|
G|-----------------------------------|   2
D|-10--9-----------------------------| times
A|-10-10-10-10---7-8--10-8-7--5-5----|
E|-8---8--0--0---5-8--8--8-5--3-3----|

Verse:

With blood and feathers
On my torn paws
You ain't nothin' but a dead duck
I ain't nothin' but a hound dog

e|-----------------------------------|
B|-----------------------------------|
G|-----------------------------------|   2
D|-10--9-----------------------------| times
A|-10-10-10-10---7-8--10-8-7--5-5----|
E|-8---8--0--0---5-8--8--8-5--3-3----|

You seep in the windows again
And I lay in the grass and I lose your scent
If God gave me grace then why aren't I graceful?
My joints are frozen, cold, and old and idle...

e|-----------------------------------|
B|-----------------------------------|
G|-----------------------------------|   2
D|--3-----7---5-------3-----7---5----| times
A|--3-----7---5-------3-----7---5----|
E|--1-----5---3-------1-----5---3----|

Chorus
e|--------------------------------------------------------------|
B|--------------------------------------------------------------|
G|--------------------------------------------------------------|
D|--10----7---5-----10----7---5-----3----7---5------3----7---5--|
A|--10----7---5-----10----7---5-----3----7---5------3----7---5--|
E|--8-----5---3-----8-----5---3-----1----5---3------1----5---3--|

Repeat intro
Related for Aloc-acoc tab