Song name
# A B C D E F G H I J K L M N O P Q R S T U V W X Y Z

Brand New - Sowing Season tab

Band: Brand New
Song: Sowing Season (Yeah)
Album: The Devil And God Are Raging Inside Me
Tabbed By: Tristan Keddy (bn_seventyx7@hotmail.com)
Tuning: Standard Tuning

Jesse's part of the song. I haven't tabbed two many songs, so give me a break but this is almost perfect.

(~) vibrato

Intro/Main Chords

	"I was losing all my friends......."
e|--x-x-x-x-x-x--x-x-x-x-x-x--x-x-x-x-x-x--x-x-x-x-x-x----| 
B|--x-x-x-x-x-x--x-x-x-x-x-x--x-x-x-x-x-x--x-x-x-x-x-x----| 
G|--x-x-x-x-x-x--x-x-x-x-x-x--x-x-x-x-x-x--x-x-x-x-x-x----|
D|--5-5-5-5-5-5--0-0-0-0-0-0--0-0-0-0-0-0--0-0-0-0-0-0----| x 15
A|--7-7-7-7-7-7--5-5-5-5-5-5--7-7-7-7-7-7--5-5-5-5-5-5----| 
E|--0-0-0-0-0-0--7-7-7-7-7-7--5-5-5-5-5-5--3-3-3-3-3-3----| 


1st Chorus

	"Yeah!........."
e|--0-0-0-0-0-0--0-0-0-0-0-0--0-0-0-0-0-0--0-0-0-0-0-0----| 
B|--0-0-0-0-0-0--0-0-0-0-0-0--0-0-0-0-0-0--0-0-0-0-0-0----| 
G|--0-0-0-0-0-0--0-0-0-0-0-0--0-0-0-0-0-0--0-0-0-0-0-0----| x 2
D|--5-5-5-5-5-5--0-0-0-0-0-0--0-0-0-0-0-0--0-0-0-0-0-0----| 
A|--7-7-7-7-7-7--5-5-5-5-5-5--7-7-7-7-7-7--5-5-5-5-5-5----|
E|--0-0-0-0-0-0--7-7-7-7-7-7--5-5-5-5-5-5--3-3-3-3-3-3----|

	"Yeah!............"
e|--0-0-0-0-0--0-0-0-0-0-0--0-0-0-0-0-0--0-0-0-0-0-0---|
B|--0-0-0-0-0--0-0-0-0-0-0--0-0-0-0-0-0--0-0-0-0-0-0---|
G|--0-0-0-0-0--0-0-0-0-0-0--0-0-0-0-0-0--0-0-0-0-0-0---|
D|--2-2-2-2-2--0-0-0-0-0-0--0-0-0-0-0-0--0-0-0-0-0-0---|
A|--2-2-2-2-2--9-9-9-9-9-9--5-5-5-5-5-5--7-7-7-7-7-7---|
E|--0-0-0-0-0--7-7-7-7-7-7--3-3-3-3-3-3--5-5-5-5-5-5---|

    
	"Yeah!....."
e|--0-0-0-0-0-0--0-0-0-0-0-0--0-0-0-0-0-0--0-0-0-0-0-0---|
B|--0-0-0-0-0-0--0-0-0-0-0-0--0-0-0-0-0-0--0-0-0-0-0-0---|
G|--0-0-0-0-0-0--0-0-0-0-0-0--0-0-0-0-0-0--0-0-0-0-0-0---|
D|--5-5-5-5-5-5--0-0-0-0-0-0--0-0-0-0-0-0--0-0-0-0-0-0---|
A|--7-7-7-7-7-7--5-5-5-5-5-5--7-7-7-7-7-7--5-5-5-5-5-5---|
E|--0-0-0-0-0-0--7-7-7-7-7-7--5-5-5-5-5-5--3-3-3-3-3-3---|


e|-------------------|
B|-------------------| 
G|-------------------|
D|-5~----------------| x2
A|-7~--5~--7~--5~----|
E|-----7~--5~--3~----|

    
	"Nothing gets so bad, That a whisper....."
e|--x-x-x-x-x-x--x-x-x-x-x-x--x-x-x-x-x-x--x-x-x-x-x-x---| (He stops playing
B|--x-x-x-x-x-x--x-x-x-x-x-x--x-x-x-x-x-x--x-x-x-x-x-x---|  for a bit.)
G|--x-x-x-x-x-x--x-x-x-x-x-x--x-x-x-x-x-x--x-x-x-x-x-x---| x2 
D|--5-5-5-5-5-5--0-0-0-0-0-0--0-0-0-0-0-0--0-0-0-0-0-0---| 
A|--7-7-7-7-7-7--5-5-5-5-5-5--7-7-7-7-7-7--5-5-5-5-5-5---| 
E|--0-0-0-0-0-0--7-7-7-7-7-7--5-5-5-5-5-5--3-3-3-3-3-3---|


2nd Chorus 

	"Yeah!....."	
e|--0-0-0-0-0-0--0-0-0-0-0-0--0-0-0-0-0-0--0-0-0-0-0-0-----| 
B|--0-0-0-0-0-0--0-0-0-0-0-0--0-0-0-0-0-0--0-0-0-0-0-0-----| 
G|--0-0-0-0-0-0--0-0-0-0-0-0--0-0-0-0-0-0--0-0-0-0-0-0-----| x 2
D|--5-5-5-5-5-5--0-0-0-0-0-0--0-0-0-0-0-0--0-0-0-0-0-0-----| 
A|--7-7-7-7-7-7--5-5-5-5-5-5--7-7-7-7-7-7--5-5-5-5-5-5-----| 
E|--0-0-0-0-0-0--7-7-7-7-7-7--5-5-5-5-5-5--3-3-3-3-3-3-----|
	

	"Yeah!....."
e|--0-0-0-0--0-0-0-0-0-0--0-0-0-0-0-0--0-0-0-0-0-0---|
B|--0-0-0-0--0-0-0-0-0-0--0-0-0-0-0-0--0-0-0-0-0-0---|
G|--0-0-0-0--0-0-0-0-0-0--0-0-0-0-0-0--0-0-0-0-0-0---|
D|--2-2-2-2--0-0-0-0-0-0--0-0-0-0-0-0--0-0-0-0-0-0---|
A|--2-2-2-2--9-9-9-9-9-9--5-5-5-5-5-5--7-7-7-7-7-7---|
E|--0-0-0-0--7-7-7-7-7-7--3-3-3-3-3-3--5-5-5-5-5-5---|

	
	"Yeah!....."
e|--0-0-0-0-0-0--0-0-0-0-0-0--0-0-0-0-0-0--0-0-0-0-0-0---|
B|--0-0-0-0-0-0--0-0-0-0-0-0--0-0-0-0-0-0--0-0-0-0-0-0---|
G|--0-0-0-0-0-0--0-0-0-0-0-0--0-0-0-0-0-0--0-0-0-0-0-0---|
D|--5-5-5-5-5-5--0-0-0-0-0-0--0-0-0-0-0-0--0-0-0-0-0-0---|
A|--7-7-7-7-7-7--5-5-5-5-5-5--7-7-7-7-7-7--5-5-5-5-5-5---|
E|--0-0-0-0-0-0--7-7-7-7-7-7--5-5-5-5-5-5--3-3-3-3-3-3---|


	"No time to get the seeds...."
e|--0-0-0-0-0-0--0-0-0-0-0-0--0-0-0-0-0-0--0-0-0-0-0-0--0-0-|
B|--0-0-0-0-0-0--0-0-0-0-0-0--0-0-0-0-0-0--0-0-0-0-0-0--0-0-|
G|--0-0-0-0-0-0--0-0-0-0-0-0--0-0-0-0-0-0--0-0-0-0-0-0--0-0-|
D|--0-0-0-0-0-0--5-5-5-5-5-5--5-5-5-5-5-5--0-0-0-0-0-0--0-0-|
A|--5-5-5-5-5-5--7-7-7-7-7-7--3-3-3-3-3-3--5-5-5-5-5-5--5-5-|
E|--7-7-7-7-7-7--0-0-0-0-0-0--0-0-0-0-0-0--3-3-3-3-3-3--2-2-|


	"Before you put my body......"
e|--0-0-0-0-0-0--0-0-0-0-0-0--0-0-0-0-0-0--0-0-0-0-0-0--0-0-0-0|
B|--0-0-0-0-0-0--0-0-0-0-0-0--0-0-0-0-0-0--0-0-0-0-0-0--0-0-0-0|
G|--0-0-0-0-0-0--0-0-0-0-0-0--0-0-0-0-0-0--0-0-0-0-0-0--0-0-0-0|
D|--0-0-0-0-0-0--5-5-5-5-5-5--5-5-5-5-5-5--0-0-0-0-0-0--0-0-0-0|
A|--5-5-5-5-5-5--7-7-7-7-7-7--3-3-3-3-3-3--5-5-5-5-5-5--5-5-5-5|
E|--7-7-7-7-7-7--0-0-0-0-0-0--0-0-0-0-0-0--3-3-3-3-3-3--2-2-2-2|


	"It's coming to an end, Yeah....."
e|------------------|
B|------------------| Played after 2nd chorus four times
G|------------------|
D|-5~---------------| x4
A|-7~--5~--7~--5~---|
E|-----7~--5~--3~---|


	"Do you miss the blend?......"
e|--x-x-x-x-x-x--x-x-x-x-x-x--x-x-x-x-x-x--x-x-x-x-x-x---|
B|--x-x-x-x-x-x--x-x-x-x-x-x--x-x-x-x-x-x--x-x-x-x-x-x---| 
G|--x-x-x-x-x-x--x-x-x-x-x-x--x-x-x-x-x-x--x-x-x-x-x-x---| 
D|--5-5-5-5-5-5--0-0-0-0-0-0--0-0-0-0-0-0--0-0-0-0-0-0---| x 4
A|--7-7-7-7-7-7--5-5-5-5-5-5--7-7-7-7-7-7--5-5-5-5-5-5---| 
E|--0-0-0-0-0-0--7-7-7-7-7-7--5-5-5-5-5-5--3-3-3-3-3-3---|


Last Chorus


	"Yeah!...."
e|--0-0-0-0-0-0--0-0-0-0-0-0--0-0-0-0-0-0--0-0-0-0-0-0---|
B|--0-0-0-0-0-0--0-0-0-0-0-0--0-0-0-0-0-0--0-0-0-0-0-0---|
G|--0-0-0-0-0-0--0-0-0-0-0-0--0-0-0-0-0-0--0-0-0-0-0-0---|
D|--5-5-5-5-5-5--0-0-0-0-0-0--0-0-0-0-0-0--0-0-0-0-0-0---| x 2 
A|--7-7-7-7-7-7--5-5-5-5-5-5--7-7-7-7-7-7--5-5-5-5-5-5---|
E|--0-0-0-0-0-0--7-7-7-7-7-7--5-5-5-5-5-5--3-3-3-3-3-3---|


	"Ya...Yeah!....."
e|--0-0-0-0--0-0-0-0-0-0--0-0-0-0-0-0--0-0-0-0-0-0---|
B|--0-0-0-0--0-0-0-0-0-0--0-0-0-0-0-0--0-0-0-0-0-0---|
G|--0-0-0-0--0-0-0-0-0-0--0-0-0-0-0-0--0-0-0-0-0-0---|
D|--2-2-2-2--0-0-0-0-0-0--0-0-0-0-0-0--0-0-0-0-0-0---|
A|--2-2-2-2--9-9-9-9-9-9--5-5-5-5-5-5--7-7-7-7-7-7---|
E|--0-0-0-0--7-7-7-7-7-7--3-3-3-3-3-3--5-5-5-5-5-5---|


	"Yeah!......"
e|--0-0-0-0-0-0--0-0-0-0-0-0--0-0-0-0-0-0--0-0-0-0-0-0---|
B|--0-0-0-0-0-0--0-0-0-0-0-0--0-0-0-0-0-0--0-0-0-0-0-0---|
G|--0-0-0-0-0-0--0-0-0-0-0-0--0-0-0-0-0-0--0-0-0-0-0-0---|
D|--5-5-5-5-5-5--0-0-0-0-0-0--0-0-0-0-0-0--0-0-0-0-0-0---|
A|--7-7-7-7-7-7--5-5-5-5-5-5--7-7-7-7-7-7--5-5-5-5-5-5---|
E|--0-0-0-0-0-0--7-7-7-7-7-7--5-5-5-5-5-5--3-3-3-3-3-3---|


	"Before you put my body....."
e|--0-0-0-0-0-0--0-0-0-0-0--0-0-0-0-0--0-0-0-0--0-0-0-0--0--|
B|--0-0-0-0-0-0--0-0-0-0-0--0-0-0-0-0--0-0-0-0--0-0-0-0--0--|
G|--0-0-0-0-0-0--0-0-0-0-0--0-0-0-0-0--0-0-0-0--0-0-0-0--0--|
D|--0-0-0-0-0-0--5-5-5-5-5--5-5-5-5-5--0-0-0-0--5-5-5-5--2--|
A|--5-5-5-5-5-5--7-7-7-7-7--3-3-3-3-3--5-5-5-5--5-5-5-5--2--|
E|--7-7-7-7-7-7--0-0-0-0-0--0-0-0-0-0--3-3-3-3--2-2-2-2--0--|

And that's it. If u have any question feel free to e-mail me.
The song is not hard....you just have to listen to the rythme.
This tab is almost perfect...so dont give up on it.
Tap to rate this tab
 
# A B C D E F G H I J K L M N O P Q R S T U V W X Y Z