Guitaretab - guitar tabs
Song name
# A B C D E F G H I J K L M N O P Q R S T U V W X Y Z

Brand New - Devil And God Are Raging Inside Me tab

The Devil and God are Raging Inside Me-Brand New

It's missing a couple of songs. I'll fix it when I get around to it.


1.Sowing Season (Yeah)

e|----------------------------------------------------------------|
b|----------------------------------------------------------------|
g|--------------0-------------------------------------------------|
d|--5-5-5-5-5-5--x-x-x-x-x-x--x-x-x-x-x-x--x-x-x-x-x-x------------|
a|--7-7-7-7-7-7--5-5-5-5-5-5--7-7-7-7-7-7--5-5-5-5-5-5------------|
E|--x-x-x-x-x-x--7-7-7-7-7-7--5-5-5-5-5-5--3-3-3-3-3-3------------|


At 0:38
e|----10--------------------|
b|-------12---10---12-------|
g|--9-------------------12--|
d|--------------------------|
a|--------------------------|
E|--------------------------|

Chorus
e|--------------------------------------------------------------|
b|------------------------------------------12-10---------------|
g|---7h9-7-b11-9-7-9----------7-h9-7-b11-9-------br11br11------|
d|--------------------9h10p9------------------------------------|
a|--------------------------------------------------------------|
E|--------------------------------------------------------------|

After chorus
e|-----------------------------|---------------------------------|
b|--12~-----10~----10~---------|-12~-----10~----10~--------------|
g|----12~-9~---11~----11~---12~|---12~-9----11~----11~---9~------|
d|---------------12~-----12~---|--------------12~-----12~--------|
a|-----------------------------|---------------------------------|
E|-----------------------------|---------------------------------|

Chorus

B5 x18 A5 B5 A5 G5

At 2:30
e|----------------------|
b|----12-10-------------|
g|----------br11br11----|
d|----------------------|  x4
a|----------------------|
E|----------------------|

e|----------------------------------------|
b|------------10---------------7--8--7----|
g|--9--11--12-----12--11--7--9---------7--|
d|----------------------------------------|
a|----------------------------------------|
E|----------------------------------------|

e|-----------------------------|-----------------------------|
b|--12~-----10~----10~---------|-12~-----10~----10~----------|
g|----12~-9~---11~----11~---12~|---12~-9----11~----11~---9~--|
d|---------------12~-----12~---|--------------12~-----12~----|
a|-----------------------------|-----------------------------|
E|-----------------------------|-----------------------------|

At 3:07
e|-----------------------------------------------------|
b|--13p12/10h12/8--10h12/8-----------------------------|
g|-------------------------9p7/5h7/4-0h2h4-------------|
d|-----------------------------------------------------|
a|-----------------------------------------------------|
E|-----------------------------------------------------|
Second time played without 9p7/5h7/4-0h2h4.

Verse

At 3:30
e|-------------------------------------------------------------|
b|--------0-------------0-----------0------------0-------------|
g|-----0----0-------0-----0-----0-----0------0-----0-----------|
d|----5--5--------5---5-------5---5--------5---5---------------|
a|--7-----------5-----------3------------2---------------------|
E|-------------------------------------------------------------|

g|--21--|
d|---x--|
a|--19--|

Chorus riff
e|------------------------------------------------------------|
b|------------------------------------------12-10-------------|
g|---7h9-7-b11-9-7-9----------7-h9-7-b11-9-------br11br11----|
d|--------------------9h10p9----------------------------------|
a|------------------------------------------------------------|
E|------------------------------------------------------------|

B5 x18 A5 B5 A5 G5

e|----------------------|
b|----12-10-------------|
g|----------br11br11----|
d|----------------------|  x4
a|----------------------|
E|----------------------|

e|----------------------------------------------|
b|------------10---------------7--8--7----------|
g|--9--11--12-----12--11--7--9---------7--7h9~--|
d|----------------------------------------------|
a|----------------------------------------------|
E|----------------------------------------------|

2. Millstone

3. Jesus Christ
Main Riff (0:05)
Played throughout the song by Guitar 1
e|-----5--------5--------5--------5---|
B|---3---3----3---3----3---3----3---3-|
G|-4--------4--------4--------4-------|
D|------------------------------------|
A|------------------------------------|
E|------------------------------------|

e|-----5--------5--------5--------5---|
B|---3---3----3---3----3---3----3---3-|
G|-2--------2--------2--------2-------|
D|------------------------------------|
A|------------------------------------|
E|------------------------------------|

Intro Solo  (0:16-0:38)
Played by Guitar 2.
e|------------------------|
B|-5--3-5/7-----2-3/5-----|
G|----------4-2-----------|
D|------------------------|    x3
A|------------------------|
E|------------------------|

e|-------------------|
B|-5-3-5/7-3---------|
G|-----------4-2-----|
D|---------------4---|    x1
A|-------------------|
E|-------------------|

Harmonics (2:21-2:25)
Played by Guitar 2
e|-(7)---------
B|-----(7)-----
G|---------(7)-
D|-------------
A|-------------
E|-------------

2nd Solo (2:25-3:10)
Played by Guitar 2.
e|----------------------|
B|-5-5--3-5/7-----2-3/5-|
G|----------4-2---------|
D|----------------------|   x3
A|----------------------|
E|----------------------|

e|-------------------|
B|-5-3-5/7-3---------|
G|-----------4-2-----|
D|---------------4---|      x1
A|-------------------|
E|-------------------|

e|-------------------|
B|-------------------|
G|-4-4-4-4-2---------|
D|-----------5-4h5p4-|
A|-------------------|
E|-------------------|

e|---------------------|
B|---------------------|
G|-----2-4-4-4-4-2-----|
D|-2/4-------------5-4-|
A|---------------------|
E|---------------------|

e|-------------------|
B|-------------------|
G|-4-4-4-4-2---------|
D|-----------5-4h5p4-|
A|-------------------|
E|-------------------|

e|-------------|
B|-------------|
G|-----2-------|
D|-2/4---4-2/5-|
A|-------------|
E|-------------|

Outro Solo  (4:25)
Same as 2nd solo, except for an added bend at the end of the 2nd line.

End Note (5:10)
e|---
B|---
G|---
D|-4-
A|---
E|---

4. Degausser

Into/Verse - Guitar 1
E-------------------------------------|
B------15-12--7b-----7-10-12----------|
G-9-12-----------7-9------------------|
D-------------------------------------|
A-------------------------------------|
E-------------------------------------|

Intro/Verse - Guitar 2
E--------------------------------|
B-8-8-8-8-8-8-8-8-7-7-7-7-7-7-7-7|
G-9-9-9-9-9-9-9-9-7-7-7-7-7-7-7-7|
D-9-9-9-9-9-9-9-9-7-7-7-7-7-7-7-7| 
A-7-7-7-7-7-7-7-7-5-5-5-5-5-5-5-5|
E--------------------------------|

Bridge - Guitar 2
e--------------------------------|
B-3-3-3-3-3-3-3-3-3-3-3-3-3-3-3-3|
G-5-5-5-5-5-5-5-5-5-5-5-5-5-5-5-5|
D-5-5-5-5-5-5-5-5-5-5-5-5-5-5-5-5| x2
A-3-3-3-3-3-3-3-3-3-3-3-3-3-3-3-3|
E--------------------------------|

Chorus - Guitar 1
E-7---7---7h8p7-5-----5---5h7p5--|
B--8---8---------7-----7---------|
G---9---9---------7-----7--------|
D--------------------------------| x4
A--------------------------------|
E--------------------------------|

Chorus - Guitar 2
E--------------------------------|
B-8-8-8-8-8-8-8-8-7-7-7-7-7-7-7-7|
G-9-9-9-9-9-9-9-9-7-7-7-7-7-7-7-7|
D-9-9-9-9-9-9-9-9-7-7-7-7-7-7-7-7| x4
A-7-7-7-7-7-7-7-7-5-5-5-5-5-5-5-5|
E--------------------------------|

5. Limousine

Riff 1
e}----------------------------------------------|
b}----3----2----0----0----0----0----3----2------|
g}----4----4----4----6----4----3----4----2------|
d}----4----4----5----7----5----4----4----2------|
a}----2----4----5----7----5----4----2----0------|
e}------------------------3----2----------------|

Riff 2
e}--------------------------------------------------------|
b}--------------------------------------------------------|
g}--------------4----7---------6----4---------------------|
d}----5----7----4----7----5----6----4----7----5----4------|
a}----5----7----2----5----5----4----2----7----5----4------|
e}----3----5--------------3--------------5----3----2------|
  hold out the last chord twice as long as the others

Riff 3
e}----2----0----3----0----|
b}----3----0----3----0----|
g}----2----2----0----0----|
d}----0----2----0----2----|
a}----0----0----2----2----|
e}--------------3----0----|

Riff 4
e}------------------------|
b}----3----2----0---------|
g}----4----2----4----3----|
d}----4----2----5----4----|
a}----2----0----5----4----|
e}--------------3----2----|
  pick up on the strumming again

Outro
e}----10(x16)----9(x16)---10~~~~12-14-12-10-9 ~~~~14(x16)----12(x16)-------|
b}------------------------12~~~~12-12-12-12-10~~~--------------------------|
g}-----^rapid picking^----------------------------------^rapid picking^----|
d}-------------------------------------------------------------------------|
a}-------------------------------------------------------------------------|
e}-------------------------------------------------------------------------|

e}---------------------------12-10---------------14-12-10-----14-15-17-19---|
b}----12-12-14b----12-12-12----------12-12-14b-----------14-----------------|
g}-----------------------------------------------------------^rapid picking^|
d}--------------------------------------------------------------------------|
a}--------------------------------------------------------------------------|
e}--------------------------------------------------------------------------|

6. You Won't Know

 Guitar 1
|--------------------------------------------|
|--------8p7-------7h8-------8p7-------7h8p7-|
|----9-9-------9-9--------9-9-------9-9------|
|--------------------------------------------|
|--------------------------------------------|
|--------------------------------------------|
                                              x9 :01-1:38
|--------------------------------------------|
|--------8p7-------7h8-------8p7-------7h8p7-|
|--------------------------------------------|	
|--10-10-----10-10-----10-10-----10-10-------|
|--------------------------------------------|
|--------------------------------------------|
  Guitar 2
|------------------------------------------------------------------|
|------------------------------------------------------------------|
|-9-9-9-9-9-9-9-9-9-9-9-9-9-9-9-9-9-9-9-9-9-9-9-9-9-9-9-9-9-9-9-9--|
|-x-x-x-x-x-x-x-x-x-x-x-x-x-x-x-x-x-x-x-x-x-x-x-x-x-x-x-x-x-x-x-x--|x6
|-7-7-7-7-7-7-7-7-7-7-7-7-7-7-7-7-7-7-7-7-7-7-7-7-7-7-7-7-7-7-7-7--|
|------------------------------------------------------------------|

  Guitar 1 (comes in 4th time)
|--------------------------------------------|
|--------8p7-------7h8-------8p7-------7h8p7-|
|----9-9-------9-9--------9-9-------9-9------|
|--------------------------------------------|
|--------------------------------------------|
|--------------------------------------------|
                                              x2
|--------------------------------------------|
|--------8p7-------7h8-------8p7-------7h8p7-|
|--------------------------------------------|	
|--10-10-----10-10-----10-10-----10-10-------|
|--------------------------------------------|
|--------------------------------------------|

  Guitar 2
|------------------------------------------------------------------|
|------------------------------------------------------------------|
|-9-9-9-9-9-9-9-9-9-9-9-9-9-9-9-9-9-9-9-9-9-9-9-9-9-9-9-9-9-9-9-9--|
|-x-x-x-x-x-x-x-x-x-x-x-x-x-x-x-x-x-x-x-x-x-x-x-x-x-x-x-x-x-x-x-x--|x6
|-7-7-7-7-7-7-7-7-7-7-7-7-7-7-7-7-7-7-7-7-7-7-7-7-7-7-7-7-7-7-7-7--|
|------------------------------------------------------------------|

|  Guitar 1 (comes in 4th time)
|--------------------------------------------|
|--------8p7-------7h8-------8p7-------7h8p7-|
|----9-9-------9-9--------9-9-------9-9------|
|--------------------------------------------|
|--------------------------------------------|
|--------------------------------------------|
                                                x2
|--------------------------------------------|
|--------8p7-------7h8-------8p7-------7h8p7-|
|--------------------------------------------|	
|--10-10-----10-10-----10-10-----10-10-------|
|--------------------------------------------|
|--------------------------------------------|

 Guitar 2            Guitar 1
|------------------|-|----|
|------------------|-|----|
|------------------|-|-7b-|
|-2222222222222222-|-|----|3:28-3:32
|-2222222222222222-|-|----|
|-0000000000000000-|-|----|

  Guitar 2
|------------------|
|------------------|
|------------------|
|-2222222222222222-|3:32-3:37
|-2222222222222222-|
|-0000000000000000-|

 Guitar 2
|-----------------------|
|-----------------------|
|-----9-9-9-9---9-------|
|-----9-9-9-9---9-------|x4 3:37-3:46
|-7-7-7---------7-7-----|
|-----------------------|

 Guitar 2
|---------------------------------------------------------------|
|-0-0------------0-0--------------------------------------------|
|-----0-0------------0-0--------------0-0------------0-0--------|3:46-4:04
|---------2-2--2---------2-2--2---2-2-----2-2-2--2-2-----2-2--2-|x2
|---------------------------------------------------------------|
|---------------------------------------------------------------|

| Guitar 1 (comes in second time)
|---------------------------------------------|
|-12-12-----------------12-12-----------------|
|-------12-12-----------------12-12-----------|
|-------------14-14--14------------14-14--14--|
|---------------------------------------------|
|---------------------------------------------|
                                               x1 3:55-4:04
|---------------------------------------------|
|---------------------------------------------|
|-------12-12------------------12-12----------|
|-14-14-------14-14--14--14-14-------14-14--14|
|---------------------------------------------|
|---------------------------------------------|
[ Tab from: http://www.guitaretab.com/b/brand-new/88198.html ]
  Guitar 1 
|--------------------------------------------|
|--------8p7-------7h8-------8p7-------7h8p7-|
|----9-9-------9-9--------9-9-------9-9------|
|--------------------------------------------|
|--------------------------------------------|
|--------------------------------------------|
                                              x10 4:05-END
|--------------------------------------------|
|--------8p7-------7h8-------8p7-------7h8p7-|
|--------------------------------------------|	
|--10-10-----10-10-----10-10-----10-10-------|
|--------------------------------------------|
|--------------------------------------------|

7. Welcome to Bangkok

8. Not the Sun

[Intro]
eb|-----------------------------------------------------------------------|
Bb|--/101010-888-666-5555-------------------------------------------------|
Gb|----------------------x2-----------------------------------------------|
Db|-----------------------------------------------------------------------|
Ab|-----------------------------------------------------------------------|
Eb|-----------------------------------------------------------------------|

eb|------------------------------------------------------------------------|
Bb|--131313-101010-131313-88-10--/101010-888-666-55555h6\3-----------------|
Gb|------------------------------------------------------------------------|
Db|------------------------------------------------------------------------|
Ab|------------------------------------------------------------------------|
Eb|------------------------------------------------------------------------|

[Verse] (0:23)
eb|----8-10-12-13---8-10-13-12-5---8-10-13-17------------------------------|
Bb|--6------------6----------------6---------------------------------------|
Gb|------------------------------------------------------------------------|
Db|------------------------------------------------------------------------|
Ab|------------------------------------------------------------------------|
Eb|------------------------------------------------------------------------|

[Pre-Chorus] (0:36)
eb|------------------------------------------------------------------------|
Bb|--101010-888-666-55555--------------------------------------------------|
Gb|-------------------------x2---------------------------------------------|
Db|------------------------------------------------------------------------|
Ab|------------------------------------------------------------------------|
Eb|------------------------------------------------------------------------|

eb|------------------------------------------------------------------------|
Bb|------------------------------------------------------------------------|
Gb|------------------------------------------------------------------------|
Db|--777-1010101010-121212-1515151515-777-1010101010-171717-1515151515-----|
Ab|------------------------------------------------------------------------|
Eb|------------------------------------------------------------------------|

[Chorus] (0:50)
eb|---------------------------------------------------------------------|
Bb|---------------------------------------------------------------------|
Gb|-----14--------------------------------------------------------------|
Db|--12---15-14---------------------------------------------------------|
Ab|---------------------------------------------------------------------|
Eb|---------------------------------------------------------------------|

[Pre Verse] (1:05)
eb|--3---------------/17b---------------------------------------------|
Bb|-------------------------------------------------------------------|
Gb|-------------------------------------------------------------------|
Db|-------------------------------------------------------------------|
Ab|-------------------------------------------------------------------|
Eb|-------------------------------------------------------------------|

[Verse] (1:14)
eb|----8-10-12-13---8-10-13-12-5---8-10-13-17------------------------------|
Bb|--6-------------6---------------6---------------------------------------|
Gb|------------------------------------------------------------------------|
Db|------------------------------------------------------------------------|
Ab|------------------------------------------------------------------------|
Eb|------------------------------------------------------------------------|

[Pre Chorus] (1:27)
eb|------------------------------------------------------------------------|
Bb|--101010-888-666-555555-------------------------------------------------|
Gb|----------------------------x2------------------------------------------|
Db|------------------------------------------------------------------------|
Ab|------------------------------------------------------------------------|
Eb|------------------------------------------------------------------------|

eb|------------------------------------------------------------------------|
Bb|------------------------------------------------------------------------|
Gb|------------------------------------------------------------------------|
Db|--777-1010101010-121212-1515151515-777-1010101010-171717-1515151515-----|
Ab|------------------------------------------------------------------------|
Eb|------------------------------------------------------------------------|

[Chorus] (1:34)
eb|----------------------------------------------------------------------|
Bb|----------------------------------------------------------------------|
Gb|-----14---------------------------------------------------------------|
Db|--12---15-14----------------------------------------------------------|
Ab|----------------------------------------------------------------------|
Eb|----------------------------------------------------------------------|

[Bridge] (2:04)
eb|--13-10--10-13-10--8-10-8----------------------------------------------|
Bb|-----------------------------x9----------------------------------------|
Gb|-----------------------------------------------------------------------|
Db|-----------------------------------------------------------------------|
Ab|-----------------------------------------------------------------------|
Eb|-----------------------------------------------------------------------|

[Pre Chorus] (2:45)
eb|------------------------------------------------------------------------|
Bb|--101010-888-666-55555--------------------------------------------------|
Gb|--------------------------x2--------------------------------------------|
Db|------------------------------------------------------------------------|
Ab|------------------------------------------------------------------------|
Eb|------------------------------------------------------------------------|

eb|------------------------------------------------------------------------|
Bb|------------------------------------------------------------------------|
Gb|------------------------------------------------------------------------|
Db|--777-1010101010-121212-1515151515-777-1010101010-171717-1414141414-----|
Ab|------------------------------------------------------------------------|
Eb|------------------------------------------------------------------------|

[Chorus/Outro] (2:52)
eb|------------------------------------------------------------------------|
Bb|------------------------------------------------------------------------|
Gb|-----14-----------------------------------------------------------------|
Db|--12---15-14------------------------------------------------------------|
Ab|------------------------------------------------------------------------|
Eb|------------------------------------------------------------------------|

Rhythm Guitar

[Verse] (0:34)
eb|----------------------------------------------------------------------|
Bb|----------------------------------------------------------------------|
Gb|----------------------------------------------------------------------|
Db|----------------------------------------------------------------------|
Ab|---5------------------------------------------------------------------|
Eb|--5-5-3-5-1-----------------------------------------------------------|

[Pre Chorus/Chorus] (0:36)
eb|------------------------------------------------------------------------|
Bb|------------------------------------------------------------------------|
Gb|---7--5--7--5--3--5--3--5-----------------------------------------------|
Db|---7--5--7--5--3--5--3--5-----------------------------------------------|
Ab|---5--3--5--3--1--3--1--3-----------------------------------------------|
Eb|------------------------------------------------------------------------|

[Pre Verse] (1:05)
eb|-----------------------------------------------------------------------|
Bb|-----------------------------------------------------------------------|
Gb|-----------------------------------------------------------------------|
Db|--/17-15~--------------------------------------------------------------|
Ab|-----------------------------------------------------------------------|
Eb|-----------------------------------------------------------------------|

[Verse] (1:25)
eb|---------------------------------------------------------------------|
Bb|---------------------------------------------------------------------|
Gb|---------------------------------------------------------------------|
Db|---------------------------------------------------------------------|
Ab|---5-----------------------------------------------------------------|
Eb|--5-5-3-5-1----------------------------------------------------------|

[Pre Chorus/Chorus] (1:27)
eb|-------------------------------------------------------------------------|
Bb|-------------------------------------------------------------------------|
Gb|---7--5--7--5--3--5--3--5------------------------------------------------|
Db|---7--5--7--5--3--5--3--5------------------------------------------------|
Ab|---5--3--5--3--1--3--1--3------------------------------------------------|
Eb|-------------------------------------------------------------------------|

[Bridge] (2:04)
eb|--------------------------------------------------------------------|
Bb|--------------------------------------------------------------------|
Gb|--777777-555555-333333--8-8-8-8-8-8---------------------------------|
Db|--777777-555555-333333--8-8-8-8-8-8---------------------------------|
Ab|--555555-333333-111111-101010101010----x9---------------------------|
Eb|--------------------------------------------------------------------|

[Pre Chorus/Chorus] (2:37)
eb|---------------------------------------------------------------|
Bb|---------------------------------------------------------------|
Gb|---7--5--7--5--3--5--3--5--------------------------------------|
Db|---7--5--7--5--3--5--3--5--------------------------------------|
Ab|---5--3--5--3--1--3--1--3--------------------------------------|
Eb|---------------------------------------------------------------|

9. Luca

Intro/Verse
e|---------------------------------------------------|
b|----------1-----------1-----------1-----------1----|
g|------2-----2-----2-----2-----2-----2-----2-----2--|
d|----2---2-------2---2-------2---2-------2---2------|
a|--0-----------2-----------3-----------2------------|
E|---------------------------------------------------|
                                              (repeat)
Chorus
e|---------------------------------------------------|
b|----------1-----------1-----------0-----------0----|
g|------0-----0-----0-----0-----0-----0-----0-----0--|
d|----2---2-------2---2-------2---0-------2---0------|
a|--3-----------3------------------------------------|
E|--------------------------0-----------0------------|

e|---------------------------|
b|----------0-----------0----|
g|------0-----0-----0-----0--|
d|----2---0-------2---0------|
a|---------------------------|
E|--0-----------0------------|

Solo/Outro
e|-----------------------------------------|
b|-----------------------------------------|
g|-----------------------------------------|
d|--------10b-------9b-------7b---------5--|
a|--7-7-7-----7-7-7----7-7-7----7-7-5-7----|
E|-----------------------------------------|
                                   (play 8X)

e|-----------------------------------------|
b|-----------------------------------------|
g|-----------------------------------------|
d|-----------------------------------------|
a|--------5--------------------------------|
E|--5-7-8---8-7-5-7-3-1-3-0----------------|
                                   (play 4X)
e|--0----|
b|--1----|
g|--2----|
d|--2----|
a|--0----|
E|-------|

10. Untitled

11. The Archer's Bows Have Broken

INTRO/VERSE

Lead Guitar (When Appropriate)
e-5-7-5---5---------------------|
b-------7---7-6-4-4---4-7-6-4---|
g-------------------7-----------|
d-------------------------------|  x2
a-------------------------------|
e-------------------------------|

Rhythm Guitar (PM)
e-----------------------------------------|
b-----------------------------------------|
g-----------------77777777----------------|
d-99999999999999997777777755555555--------|
a-99999999999999995555555555555555--------|
e-7777777777777777--------33333333--------|

Chorus

e-----------------------------------------------------------------|
b-----------------------------------------------------------------|
g-7777777777777777------------------------------------------------|
d-7777777777777777777777777777777799999999999999995555555555555555|
a-5555555555555555777777777777777799999999999999995555555555555555|
e-----------------555555555555555577777777777777773333333333333333|

12. Handcuffs

Intro/verse:
[Guitar 1]
e|------------------------2-------2----------------------------------------|
B|------3--------5------3---3---3--3---------0----0--------3-------3-------|
G|----4---4----6--6---4-------4------------2--2--2--2----4---4---4---4-----|
D|--5--------7------------------------x3--4-----4------5-------5-----------|
A|-------------------------------------------------------------------------|
E|-------------------------------------------------------------------------|

[Guitar 2]
e|------------------------------------2-3----|
B|------------------------------------2-3----|
G|--4-4-4-4--6-6-6-6-7-7-7-7-7--------2-4----|
D|--5-5-5-5--7-7-7-7-9-9-9-9-9----x3--4-5----|
A|------------------------------------4-5----|
E|------------------------------------2-3----|

Chorus/Bridge:
e|--3-3-3-3-3------------------------------------|
B|--3-3-3-3-3--3-3-3-3-3-3--3-3-3-3-3-3-3-3-3----|
G|--0-0-0-0-0--2-2-2-2-2-2--x-x-x-x-x-x-2-2-2----|
D|--0-0-0-0-0--0-0-0-0-0-0--2-2-2-2-2-2-0-0-2----|
A|--2-2-2-2-2--x-x-x-x-x-x--2-2-2-2-2-2-x-x-0----|
E|--3-3-3-3-3--2-2-2-2-2-2--0-0-0-0-0-0-2-3------|
Related for Devil And God Are Raging Inside Me tab