Song name
# A B C D E F G H I J K L M N O P Q R S T U V W X Y Z

Brand New - Millstone tab

Millstone Tab
Artist Brand new	
By Saksham Gupta

Legend

// Slide
b  bend
r  release

Intro 

Guitar 1 clean (I think this is the bass but it can also be done by a guitar)
This also continues in the verse and pre chorus

e --------------------------------------------------------------------- 
b ---------------------------------------------------------------------
g ---------------------------------------------------------------------
d ---------------------------------------------------------------------   X 5
a -----4--------4-------4------4---------4--------4-------4-------4----
E -2-2---2-2-2----2-2-2---2-2-2--2---5-5---5-5-5----5-5-5---5-5-5---5--

Verse

Guitar 2  This enters after guitar 1 plays the intro riff once and vocals begin

e ----------------------------------------------------------------------
b -7-9-----7-10---7-9--7--10---7//5--5-9-----5-10--5-9--5--10---5//7----
g ----------------------------------------------------------------------  X 2
d ----------------------------------------------------------------------
a ----------------------------------------------------------------------
E ----------------------------------------------------------------------

Pre chorus

e -------------------------------------------------9-------------------
b -7-9-----7-10---7-9--7--10-10-7----7-10--7-9---7---7-10--7-9//10-----
g ---------------------------------------------------------------------
d ---------------------------------------------------------------------
a ---------------------------------------------------------------------
E ---------------------------------------------------------------------    

Chorus 
guitar 1 with distortion

All the notes you play here on the b string should be kept ringing till you 
play the next note on the same string. That will give the right kind of effect. 

e ----------------------------------------------------------------------
b -----5-------7-------5-------7-------2---------------2----------------
g -6-6---6-4-4---4-6-6---6-4-4---4-2-2---2-1-1-2-1-2-2---2-1-1----------
d -------------------------------------------------------------2//4-----
a ----------------------------------------------------------------------
E ----------------------------------------------------------------------

Guitar 2
Chorus lead (this is very faintly audible)
try using neck pickups with chorus or flange here. Let the notes ring

e ----------------------------------------------------------------------
b -7-------9-------10------7-10-9--5-------9----5-10---5-9-----5//7-----
g ----------------------------------------------------------------------
d ----------------------------------------------------------------------
a ----------------------------------------------------------------------
E ----------------------------------------------------------------------

Guitar 3 
Chorus lead 2
the no. of times each note is played is varied a little towards th end of the
chorus.12 is played only 3 or 4 times
 
e -12-12-12-12-12-12-12-12--9-9-9-9-9-9-9-9------------------------------
b -----------------------------------------------------------------------
g -----------------------------------------------------------------------
d -----------------------------------------------------------------------
a -----------------------------------------------------------------------
E ----------------------------------------------------------------------- 

Post chorus lead

e -----------------------------------------------------------------------
b -7-------9-----7-10------7//5----5-------9----5-10---5-9---5-5//7------
g -----------------------------------------------------------------------
d -----------------------------------------------------------------------
a -----------------------------------------------------------------------
E ----------------------------------------------------------------------- 

then play the verse again

pre chorus 
distorted
notes are repeatedly picked
use alternate picking
 
e ------------------------------------------------------------------------
b -7------9----10-12-12-12b(14)r(12)b-(14)--------------------------------
g ------------------------------------------------------------------------
d ------------------------------------------------------------------------
a ------------------------------------------------------------------------
E ------------------------------------------------------------------------

Clean 

e -----0--------------0----------------0-------------0--------------------
b -------2-3-2-0----2---2-3-2-0----------2-3-2-0---2---2-3-2-0-2----------
g ------------------------------1-----------------------------------------
d ------------------------------------------------------------------------
a ---4-------------------------------4------------------------------------
E -2--------------0----------------2-------------0------------------------

now play the chorus with the chorus lead twice

Bridge

e ----------------------0-----------------------0------------------------0-
b ---0-----0------0--2----2------3----3--------2-------------------------2-
g --4----4------4---------------4---4---------4--------------------------4-
d ----------------------------0-----------0---------0---4----0---4---0-----
a -2----------4-----------------------------4---------5---5----5-------4---
E ------------------------------------------------------------------------- 

e -------0----------------0-----------
b -----0---0-----3-3----5-------------
g ---4--------------------------------
d -------------0------2---------------
a -2----------------------------------
E ------------------------------------

with distortion (there are no drums playing here and there is no chorus lead)

e ------------------------------------------------------------------------
b -----5-------7-------5-------7-------2---------------2------------------
g -6-6---6-4-4---4-6-6---6-4-4---4-2-2---2-1-1-2-1-2-2---2-1-1------------
d -------------------------------------------------------------2//4------- X2
a ------------------------------------------------------------------------
E ------------------------------------------------------------------------


Then play the chorus with both the leads.


Outro is just the bass intro with drums.
Tap to rate this tab
# A B C D E F G H I J K L M N O P Q R S T U V W X Y Z