Song name
# A B C D E F G H I J K L M N O P Q R S T U V W X Y Z

Brand New - Welcome To Bangkok tab

-------------------------------------------------------------------------------
			    brand new - welcome to bangkok
-------------------------------------------------------------------------------
Tabbed by:sam ritchie
Email:apple_pierate@hotmail.co.uk

ok so this is my first ever tab but i couldnt find this song anywhere and feel it needed 
be up here. it's not the whole song but if anyone has anything to add just feel free to 
and paste and add your own parts to it. cheers.

Tuning:standard

e|0-00000-00000-00000-00000-00000-00000-00000-0000-0-------------------------|
B|0-00000-00000-00000-00000-00000-00000-00000-0000-0-------------------------|
G|9-99999-99999-99999-99999-99999-99999-99999-9999\5-------------------------|
D|9-99999-99999-99999-99999-99999-99999-99999-9999\5-------------------------|
A|7-77777-77777-77777-77777-77777-77777-77777-7777\3-------------------------|
E|---------------------------------------------------------------------------|

e|--00000-00000-00000-00000-00000-00000-00000-0000-0-------------------------|
B|--00000-00000-00000-00000-00000-00000-00000-0000-0-------------------------|
G|--55555-55555-55555-55555-55555-55555-55555-5555/9-------------------------|
D|--55555-55555-55555-55555-55555-55555-55555-5555/9-------------------------|
A|--33333-33333-33333-33333-33333-33333-33333-3333/7-------------------------|
E|---------------------------------------------------------------------------|

i think you do this about 7 or 8 times and i think there's abit before the bass and the 
guitar come in too. but anyway here's the second part with distortion.

e|---------------------------------------------------------------------------|
B|---------------------------------------------------------------------------|
G|9-999-999-999-99-5-555-55\7-777-77-----------------------------------------|
D|9-999-999-999-99\5-555-55\7-777-77-----------------------------------------|
A|7-777-777-777-77\3-333-33\5-555-55-----------------------------------------|
E|---------------------------------------------------------------------------|

and thats all ive got so far but its probably wrong in places but its not hard to figure 
e-mail me if theres any thing wrong k? =).


| /  slide up
| \  slide down
| h  hammer-on
| p  pull-off
| ~  vibrato
| +  harmonic
| x  Mute note
===============================================================================
Tap to rate this tab
 
# A B C D E F G H I J K L M N O P Q R S T U V W X Y Z