Song name
# A B C D E F G H I J K L M N O P Q R S T U V W X Y Z

Brand New - Fork And Knife tab

-------------------------------------------------------------------------------
			     FORK AND KNIFE - BRAND NEW
-------------------------------------------------------------------------------
Tabbed by: KEVIN BORKMAN
Email: SPECIALK22784@HOTMAIL.COM

If you've ever heard this song then you know that this is not the guitar part, for it is 
piano laden song. This is the piano part transposed on to guitar. The lead part has a 
syncopated feel with some triplets thrown in, but its fairly easy once you get the rhythm down.

Tuning: DROP D
Key: F#

INTRO/CHORUS: GUITAR 1

     Eb                C#              B               Ab      Bb

e|---------------------------------------------------------------------------|
B|-------------------------------------4-------------------------------------|
G|----3----------------3---------------3----------------8---/--11------------|
D|----4----------------4---------------4----------------6---/--8-------------|
A|--4-6----------------4---------------2----------------6---/--9-------------|
D|------------------------------------------------------6---/--8-------------|

INTRO/CHORUS: GUITAR 2

e|---------------------------------------------------------------------------|
B|----------9--7---9----------9-7-----7-------9-7-----7-------7------9-------|
G|------6-8-----6----8----6-8----6-8-----6-8-----6-8-----6-8----6-8----------|
D|---------------------------------------------------------------------------|
A|---------------------------------------------------------------------------|
E|---------------------------------------------------------------------------|

VERSE

     F#/C#     Ab/Eb   Bb/F#

e|---------------------------------------------------------------------------|
B|---------------------------------------------------------------------------|
G|-------6-------8-------11--------------------------------------------------|
D|------4-------6-------8----------------------------------------------------|
A|-----4-------6-------9-----------------------------------------------------|
D|----4-------6-------8------------------------------------------------------|

INTERLUDE (HOLD OUT CHORDS)

     F#       Eb        B        B

e|---------------------------------------------------------------------------|
B|---------------------------------------------------------------------------|
G|-------------8--------4--------4-------------------------------------------|
D|----4--------8--------4--------4-------------------------------------------|
A|----4--------6--------2--------2-------------------------------------------|
D|----4----------------------------------------------------------------------|

      Ab      Bb      Eb        C#   A

e|---------------------------------------------------------------------------|
B|---------------------------------------------------------------------------|
G|----------------------8--------6-------------------------------------------|
D|----6--------8--------8--------6----7--------------------------------------|
A|----6--------9--------6--------4----7--------------------------------------|
D|----6--------8----------------------7--------------------------------------|


| /  slide up
| \  slide down
| h  hammer-on
| p  pull-off
| ~  vibrato
| +  harmonic
| x  Mute note
===============================================================================
Tap to rate this tab
 
# A B C D E F G H I J K L M N O P Q R S T U V W X Y Z