Song name
# A B C D E F G H I J K L M N O P Q R S T U V W X Y Z

Brandi Carlile - Turpentine tab

Help us improve GuitareTab! Take a short survey!
-------------------------------------------------------------------------------
			     Turpentine - JJ Grey & Mofro
-------------------------------------------------------------------------------
Tabbed by: sugapablo
Album: Country Ghetto
Website: http://www.mofro.net/home.shtml

Tuning: Standard


Main Riff:

e|---------------------------------------------------------------------------|
B|---------------------------------------------------------------------------|
G|-0-0-----0--0-----0----0-0-----0--0-----0----------------------------------|
D|-0-0-3/5-0--0-3/5-0----0-0-3/5-0--0-3/5-0----------------------------------|
A|-----3/5------3/5----------3/5------3/5------------------------------------|
E|---------------------------------------------------------------------------|

Chorus:

e|---------------------------------------------------------------------------|
B|-5--3--3----5--3--3----5--3--3----3-3-1-3----------------------------------|
G|-5--3--4----5--3--4----5--3--4----3-3-2-4----------------------------------|
D|-5--3--5----5--3--5----5--3--5----3-3-3-5----------------------------------|
A|-3--1--5----3--1--5----3--1--5----1-1-3-5----------------------------------|
E|-------3----------3----------3--------1-3----------------------------------|


| /  slide up
| \  slide down
| h  hammer-on
| p  pull-off
| ~  vibrato
| +  harmonic
| x  Mute note
===============================================================================
Related for Turpentine tab