Guitaretab - guitar tabs
Song name
# A B C D E F G H I J K L M N O P Q R S T U V W X Y Z

Brandi Carlile - Sixty Years On tab

----------------------------------------------------------------------------
		     SIXTY YEARS ON - Brandi Carlile
----------------------------------------------------------------------------
Tabbed by:sparerib
Email:futrnun@hotmail.com

Tuning:Standard

Capo:5

e|----------------------------------------------3------------------------|
B|---------1---------------1p-------------1---------1p---------1---------|
G|-----2-----2---2-----2------2-------2-----2-----2--------2-----2---2---|
D|---2---2-----2-----2---2------2---2---2-----2----------2---2-----2-----|
A|-0---------------0--------------0--------------------0---------------0-|
E|-----------------------------------------------------------------------|
[ Tab from: http://www.guitaretab.com/b/brandi-carlile/166714.html ]
e|--------------------------3--------------------------------------------|
B|-----1p-------------1---------1p---------1-------------1p---------1----|
G|---2----2-------2-----2-----2--------2-----2---2-----2--------2-----2--|
D|-2--------2---2---2-----2----------2---2-----2-----2--------2---2-----2|
A|------------0--------------------0---------------0--------0------------|
E|-----------------------------------------------------------------------|

e|-3---------------------------------------------------------------------|
B|-----1p---------1-------------1p---------------------------------------|
G|---2--------2-----2---2-----2------------------------------------------|
D|----------2---2-----2-----2--------------------------------------------|
A|--------0---------------0----------------------------------------------|
E|-----------------------------------------------------------------------|
Related for Sixty Years On tab
Sixty Years On chords by Brandi Carlile