Song name
# A B C D E F G H I J K L M N O P Q R S T U V W X Y Z

Brandi Carlile - Story tab

--------------------------------------------------------------------
		                      The Story - Brandi Carlile
--------------------------------------------------------------------


e|-0--5--7---9-9---9-5---0-0------|-9-7--5--7-7----4--0-0----------|
B|----------------------------3-2-|-------------------------3--0---|
G|--------------------------------|--------------------------------|
D|--------------------------------|--------------------------------|
A|--------------------------------|--------------------------------|
E|--------------------------------|--------------------------------|

e|--7-5-4----5-5---2--------------|-2-4-s5-5-5---2-----------------|
B|--------------------2-2----0----|-----------------3--3-----------|
G|-----------------------------2--|----------------------2---------|
D|--------------------------------|---------------------------4----|
A|--------------------------------|--------------------------------|
E|--------------------------------|--------------------------------|

e|-2--4-s5-5--0-------------------|--------------------------------|
B|---------------2-----------5----|---0h2-2--2-----3--2--------2---|
G|------------------2---1-4-------|-2-----------2-------24--------|
D|--------------------------------|--------------------------------|
A|--------------------------------|--------------------------------|
E|--------------------------------|--------------------------------|

e|--------------------------------|--------------------------------|
B|--------------------------------|--------------------------------|
G|--2-4-4-2-1-2-------------------|--------------------------------|
D|--------------------------------|--------------------------------|
A|--------------------------------|--------------------------------|
E|--------------------------------|--------------------------------|


Please rate and comment,
Hugo.
Tap to rate this tab
 
# A B C D E F G H I J K L M N O P Q R S T U V W X Y Z