Song name
# A B C D E F G H I J K L M N O P Q R S T U V W X Y Z

Brandi Carlile - Turpentine chords

Highlighted       Show chord diagrams
CAPO 7th FRET

Intro
     G                      D/F#               C              G  C  G
e|---------------------------------------------------------------0----------|
B|------------------------------3-3-3-3-3-3-3--1-1-1-1-1-1-1-----1----------|
G|---0---0-0-----0-0------------2-2-2-2-2-2-2--0-0-0-0-0-0-0--0--0--0-------|
D|---0-0-0-0-----0-0-0-0-0--0-0-0-0-0-0-0-0-0--2-2-2-2-2-2-2--0--2--0--0-0--|
A|-0/2-2-2-2-0/2-2-2-0-0-0--0-0-0-0-0-0-0-0-0--3-3-3-3-3-3-3--2--3--2--2-2--|
E|---3-3-3-3---3-3-3-3-3-3--2-2-2-2-2-2-2-2-2-----------------3-----3--3-3--|

G                                 D/F#                           C
I watch you grow away from me in photographs, and memories like spies,
                    G   C   G 
The salt betrays my eyes again,
                                  D/F#                           C
I've started losing sleep and gaining weight, and wishing I was ten again
                      G      C     G
And I could be your friend again...

                                 D/F#                          C
But these days we go to waste like wine, that turns to turpentine
                           G    C    G  
Till it's six AM and I'm all messed up,
                            D/F#
I didn't mean to waste your time
                      C
So I'll fall back in line but I'm warning you
      G    C    G 
We're growing up

                               D/F#  
I heard you found some pretty words to say,
                         C                              G    C    G 
You found your little game to play and there's no one allowed in
                                    D/F#                  C
Then just when we believe we could be great, reality it permeates
                       G    C    G 
And conquers from within again

                                 D/F#                          C
But these days we go to waste like wine, that turns to turpentine
                           G    C    G  
Till it's six AM and I'm all messed up,
                            D/F#
I didn't mean to waste your time
                      C
So I'll fall back in line but I'm warning you
      G    C    G 
We're growing up

 G D/F# C G C G D/F# C G C G

                                 D/F#                          C
But these days we go to waste like wine, that turns to turpentine
                           G    C    G  
Till it's six AM and I'm all messed up,
                            D/F#
I didn't mean to waste your time
                      C
So I'll fall back in line but I'm warning you
      G    C    G 
We're growing up

Outro
     G                      D/F#               C              G  C  G
e|---------------------------------------------------------------0----------|
B|------------------------------3-3-3-3-3-3-3--1-1-1-1-1-1-1-----1----------|
G|---0---0-0-----0-0------------2-2-2-2-2-2-2--0-0-0-0-0-0-0--0--0--0-------|
D|---0-0-0-0-----0-0-0-0-0--0-0-0-0-0-0-0-0-0--2-2-2-2-2-2-2--0--2--0--0-0--|
A|-0/2-2-2-2-0/2-2-2-0-0-0--0-0-0-0-0-0-0-0-0--3-3-3-3-3-3-3--2--3--2--2-2--|
E|---3-3-3-3---3-3-3-3-3-3--2-2-2-2-2-2-2-2-2-----------------3-----3--3-3--|


the 2nd guitar the second guitar does not use a capo, and change the chords
   G --> D
D/F# --> A
   C --> G


Tap to rate this tab
# A B C D E F G H I J K L M N O P Q R S T U V W X Y Z