Song name
# A B C D E F G H I J K L M N O P Q R S T U V W X Y Z

Brandi Carlile - Late Morning Lullaby tab

Tabbed by: August
Email: August589@live.com

Tuning: Standard

***Capo 2***

Intro:
                 E             F#m               G#m         A             E
e|----------------------------------------------------------------------------|
B|----------------------------------------------------------------------------|
G|---------------------------------------------------4-2-1--------------------|
D|-----2h4-2-----------2h4-2---2/4-----2h4-2---2-4/6-------4-2------2h4-2-----|
A|-2h4-------4\0---2h4-------4-----2h4-------4------------------2h4------4----|
E|---------------0---------------------------------------------------------0--|

              F#m               G#m        A                E
e|-------------------------------------------------------------|
B|-------------------------------------------------------------|
G|-----------------------------------4-2-1---------------------|
D|-----2h4-2---2/4-----2h4-2---2-4/6------4-2--2---2-2---2-----|
A|-2h4-------4-----2h4-------4-----------------4h4---2h4-2h4---|
E|-----------------------------------------------------------0-|


  E                         F#m
As soon as my eyes shut the slide show begins
G#m                       Am
Yesterday is gone now and panic sets in
       E                          F#m
With a weight upon my chest and a ghost upon my back
        G#m                  A
And the numbing sensation of everything I lack that leaves me
E         B         C#m G#m
Dreaming, dreaming, dreaming,
     A    B     E
Your real world away
     A          F#m                    E
Only beautiful, beautiful bright eyes lie
     A          F#m                   E
Only beautiful, beautiful bright eyes cry
        A    G#m     F#m B E
Singing late morning lullaby

               F#m              G#m          A            E
e|---------------------------------------------------------|
B|---------------------------------------------------------|
G|-----------------------------------4-2-1-----2---2h3-2---|
D|-----2h4-2---2/4-----2h4-2---2-4/6-------4-2-2h4-2---2h4-|
A|-2h4-------4-----2h4-------4-----------------------------|
E|---------------------------------------------------------|

    E                        F#m
The first sign of morning is gray and alarming
     G#m                  Am
It's so disappointing the day has come so soon
          E                            F#m
While the rest of the world greets the day and feels new
       G#m              A
I will push it way just like I always do, I will be
E         B         C#m G#m
Dreaming, dreaming, dreaming,
     A    B     E
Your real world away
     G          Em                    D
Only beautiful, beautiful bright eyes lie
     G          Em                    D
Only beautiful, beautiful bright eyes cry
        G    G/F#    Em A D
Singing late morning lullaby
G                 D
Late morning lullaby
     A          F#m                    E
Only beautiful, beautiful bright eyes lie
     A          F#m                   E
Only beautiful, beautiful bright eyes cry
        A    G#m     F#m B E    A                 E  F#m G#m A
Singing late morning lullaby    Late morning Lullaby
       E                    F#m
I would darken my window so I can fall asleep
          G#m                       A
While the critics frown down on the hours I keep that leave me
E         B         C#m G#m
Dreaming, dreaming, dreaming,
     A    B     E
Your real world away
Tap to rate this tab
# A B C D E F G H I J K L M N O P Q R S T U V W X Y Z