Song name
# A B C D E F G H I J K L M N O P Q R S T U V W X Y Z

Brandi Carlile - Follow chords

CAPO 4th fret

Intro/1st verse

E:-----7-------7-------7-------7-----|
B:---8---8---8---8---8---8---8---8---|
G:-7-------7-------7-------7---------|
D:-----------------------------------|
A:-----------------------------------|
E:-----------------------------------|

  G
  Follow your heart and see where it might
E:-----7-------7-------7-------7-----|
B:---8---8---8---8---8---8---8---8---|
G:-7-------7-------7-------7---------|
D:-----------------------------------|
A:-----------------------------------|
E:-----------------------------------|

  Bm
  take you    Don't let the world outside there
E:-----7-------7-------7-------7-----|
B:---7---7---7---7---7---7---7---7---|
G:-7-------7-------7-------7---------|
D:-----------------------------------|
A:-----------------------------------|
E:-----------------------------------|

  Bdim
  break you     They know not who you are
E:-----7-------7-------7-------7-----|
B:---6---6---6---6---6---6---6---6---|
G:-7-------7-------7-------7---------|
D:-----------------------------------|
A:-----------------------------------|
E:-----------------------------------|

  C                    Cm
  inside    They have never felt your
E:-----3---0---3-------3-------3-----|
B:---1---1---1---1---1---1---1---1---|
G:-0---------------0-------0---------|
D:-----------------------------------|
A:-----------------------------------|
E:-----------------------------------|

   G                Cm
  hell    Don't ever let them crack...
E:-----7-------7-------3-------3--3--|
B:---8---8---8---8---1---1---1----1--|
G:-7-------7-------0-------0------0--|
D:-----------------------------------|
A:-----------------------------------|
E:-----------------------------------|

G                                    Bm
Hold out I know you feel it getting cold out
                               Bdim
Without the blanket for your soul now
                             C
Before you know it you'll be frozen
         Cm              G
You have to see this through
       Cm
There's no one here but you

D                        A
I feel the rain coming down
    Am                         G
It reminds me of who I used to be
    Gm                  D
But now that's nothing more
      Gm
Then a memory

G                                    Bm
Don't go, to sleep and cry because tomorrow
                        Bdim
If you let it it will swallow
                             C
You up and none of this will matter
     Cm          G          Cm
Will matter anymore

D                        A
I feel the rain coming down
    Am                         G
It reminds me of who I used to be
    Gm                  D
But now that's nothing more
      Gm
Then a memory

G Bm Bdim C Cm G Cm G Cm

D                        A
I feel the rain coming down
    Am                         G
It reminds me of who I used to be
    Gm                  D
But now that's nothing more
      Gm
Then a memory


  G
  Follow your heart and see where it might
E:-----7-------7-------7-------7-----|
B:---8---8---8---8---8---8---8---8---|
G:-7-------7-------7-------7---------|
D:-----------------------------------|
A:-----------------------------------|
E:-----------------------------------|

  Bm
  take you    Don't let the world outside there
E:-----7-------7-------7-------7-----|
B:---7---7---7---7---7---7---7---7---|
G:-7-------7-------7-------7---------|
D:-----------------------------------|
A:-----------------------------------|
E:-----------------------------------|

  Bdim
  break you     They know not who you are
E:-----7-------7-------7-------7-----|
B:---6---6---6---6---6---6---6---6---|
G:-7-------7-------7-------7---------|
D:-----------------------------------|
A:-----------------------------------|
E:-----------------------------------|

  C                    Cm
  inside    They have never felt your
E:-----3---0---3-------3-------3-----|
B:---1---1---1---1---1---1---1---1---|
G:-0---------------0-------0---------|
D:-----------------------------------|
A:-----------------------------------|
E:-----------------------------------|

   G                Cm                      G
  hell    Don't ever let them crack...  Your shell... 
E:-----7-------7-------3-------3--3--|
B:---8---8---8---8---1---1---1----1--|
G:-7-------7-------0-------0------0--|
D:-----------------------------------|
A:-----------------------------------|
E:-----------------------------------|
 
Tap to rate this tab
 
# A B C D E F G H I J K L M N O P Q R S T U V W X Y Z