Song name
# A B C D E F G H I J K L M N O P Q R S T U V W X Y Z

Brandi Carlile - When Angels Touch The Ground tab

This is my first tab so let me know how it sounds!

No Capo

Standard Tuning

According to the chord above the verses, pick the chord as shown below.

Intro:
    C         C/B      Am         F
E|-----------------------------------1-|
B|----1--------1--------1--------1--1--|
G|---0-0-0----0-0-0----2-2-2----2--2---| 
D|--2---2----0---0----2---2----3--3----|
A|-3--------2--------0--------0--------|
E|-------------------------------------|

    C         C/B       Am        F  (Last F of the verse like this)
E|-----------------------------------1---1--1--|
B|----1--------1--------1--------1--1---1----1-|
G|---0-0-0----0-0-0----2-2-2----2--2---2---2---|
D|--2---2----0---0----2---2----3--3---3---3----|
A|-3--------2--------0--------0----------------|
E|---------------------------------------------|

Verses and Chorus: 
   C         C/B      Am         F
E|----------------------------------1--|
B|----1--------1--------1--------1---1-|
G|---0-0-0----0-0-0----2-2-2----2--2---| 
D|--2---2----0---0----2---2----3--3----|
A|-3--------2--------0--------0--------|
E|-------------------------------------|

    C         C/B      Am         F                G    
E|-----------------------------------1---1--1---------------|
B|----1--------1--------1--------1--1---1----1--------------|
G|---0-0-0----0-0-0----2-2-2----2--2---2---2------0---------|
D|--2---2----0---0----2---2----3--3---3---3------0---0------|
A|-3--------2--------0--------0-----------------2---2---3---|
E|---------------------------------------------3---3--------|



C            C/B
I'm standing here 
Am         F
My head is spinning
C                 C/B
Was it something I said
Am                F
Was it somewhere I should've been now
C            C/B
I'll make it up to you
Am                  F
Just tell me you're done with me
          G
You're done with me

(Pause)
        C   C/B
Why not fight
         Am       F
Why give up so easily
     C        C/B
I've seen you around
             Am               F
When all the angels touch the ground
                    C     C/B
And you can hand me down, baby
(Strum Am    F    G)  
               E|-----|  (Pick top three strings before going next verse)
               B|-----|
               G|-----|
               D|---0-|
               A|--2--|
               E|-3---|

(Continue picking)
C         C/B            Am     F
Know what friend I don't care
C             C/B                Am   F
Cause I don't think you're being fair
C            C/B                  Am        F
It's in your head, it's out of my hands
C           C/B            Am    F
And I don't need you after all
                  G
I said it's after all

(Pause)
(Strum)
        C   C/B
Why not fight
         Am       F
Why give up so easily
     C        C/B
I've seen you around
             Am               F
When all the angels touch the ground
                    C     C/B
And you can hand me down, yea
        Am   F   G
Hand me down

        C   C/B
Why not fight
         Am       F
Why give up so easily
     C        C/B
I've seen you around
             Am               F
When all the angels touch the ground
                    C   
And you can hand me down
Tap to rate this tab
 
# A B C D E F G H I J K L M N O P Q R S T U V W X Y Z