Song name
# A B C D E F G H I J K L M N O P Q R S T U V W X Y Z

Brandi Carlile - What Can I Say tab

Stratovarius: What Can I Say
 Tabbed by Peter Farago, peti137@citromail.hu
  
If You find any mistake, please mail me!

Tune half step down

Intro:

Solo guitar

e|-----------------------------------------8\--|
B|-------8-6-----------------------------------|
G|-5-7-8-----8-7-5-7-8-7-5-7-5h7p5\4-0-7-5-----|
D|---------------------------------------------|
A|---------------------------------------------|
E|---------------------------------------------|


Rhytm guitar

e|-----------------------|
B|-----------------------|
G|-5===------------5===--|
D|-5===-6=-3=-5===-5===--|
A|-3===-6=-3=-5===-3===--|
E|------4=-1=-3===-------|


Verse: 

Clean Guitar

Fm                           Cm   
Sometimes it's not that easy finding all the words 
Fm                      G
For how I feel when you are near 
Fm                       Cm
The more we are together makes me realize 
Bb                   G
All I ever wanted is you 

Chorus:

e|----------------------------------------------------|
B|----------------------------------------------------|
G|-5===------------5===-------3=---------------5===---|
D|-5===-6=-3=-5===-5===-6=-3=-1=-5=-6=-3=-5===-3===---|
A|-3===-6=-3=-5===-3===-6=-3=-1=-5=-6=-3=-5===-3===---|
E|------4=-1=-3===------4=-1=----3=-4=-1=-3===--------|

           Cm
What can I say? 
    Ab          Fm          G
You make all my dreams come true 
          Cm      Ab                Fm
And every day I want you right here by my side 
  Bb                G
To take my hand and hold me tight 
  Ab            Fm       G
I never want to be alone again 
      Cm
Oh my love


Verse:
Fm
The days are shorter now 
Cm
I'm reaching for some light 
Fm                    G 
And I find it in your eyes 
Fm                        Cm
Brighter than the sun it filled me up with love 
Bb                        G 
Don't ever close them for me


Chorus: ( like 1st time)


Bridge:

e|----------------------------------------------------|
B|----------------------------------------------------|
G|-------8-7-5-3----3=-5===-------8-7-5-3-------------|
D|-6=-8=-8-8-5-3-6=-3=-5===-6=-8=-8-8-5-3-6=-8=-5===--|
A|-6=-8=-6-5-3-1-6=-1=-3===-6=-8=-6-5-3-1-6=-8=-5===--|
E|-4=-6=---------4=---------4=-6=---------4=-6=-3===--|

Ab    Bb
Yes I know baby 
Eb Bb/D    Cm  B    Ab           Bb
It takes a world to keep what we have 
            Cm
And not let go 
Ab     Bb
I was lonely 
Eb  Bb/D  Cm    Bb
Before I met you 
        Ab        Bb        G 
But you wiped away all the sorrow 


 
Solo:

Solo guitar


e|----------------------------------------------------------13b15-13-13-15-13--------------|
B|-------------------------------------------------------13-------------------16-15h16p15--|
G|------10/12\10-8-7-5-7-8-7-5---------------------12-13-----------------------------------|
D|---10------------------------5----------------15-----------------------------------------|
A|-8-----------------------------6-5---------15--------------------------------------------|
E|-----------------------------------8-8--13-----------------------------------------------|


e|----13-15-16-18-18b20-18-16-15-16-15-13----------------------------13-13--------------------|
B|-13-------------------------------------16-15-13-15h16p15p13-15-16-------16-15-15p13p12====-|
G|--------------------------------------------------------------------------------------------|
D|--------------------------------------------------------------------------------------------|
A|--------------------------------------------------------------------------------------------|
E|--------------------------------------------------------------------------------------------|

Rhytm guitar (like Verse)


Chorus: 2x


e|-----------------------------------------------|
B|-----------------------------------------------|
G|-7===------------7===-------5=-----------------|
D|-7===-8=-5=-7===-7===-8=-5=-5=-7=-8=-5=-7===---|
A|-5===-8=-5=-7===-5===-8=-5=-3=-7=-8=-5=-7===---|
E|------6=-3=-5===------6=-3=----5=-6=-3=-5===---|

           Dm
What can I say? 
    Bb          Gm          A
You make all my dreams come true 
          Dm      Bb                Gm
And every day I want you right here by my side 
  C                A
To take my hand and hold me tight 
  Bb            Gm       A
I never want to be alone again 2x

      Dm
Oh my love


Outro:

Solo guitar

e|-----------------------------------------|
B|--------10-8-----------------------------|
G|-7-9-10------10-9-7-9-10-9-7-9-7h9p7\6---|
D|-----------------------------------------|
A|-----------------------------------------|
E|-----------------------------------------|



e|------------------------------------------12-13-15-17-13-12-10---------------|
B|--------10-8---------------------------10----------------------10-5b6-5-3===-|
G|-7-9-10------10-9-7-9-10-9-7-9-7-9-7-6---------------------------------------|
D|-----------------------------------------------------------------------------|
A|-----------------------------------------------------------------------------|
E|-----------------------------------------------------------------------------|


Rhytm guitar


e|----------------------------------------|
B|----------------------------------------|
G|-7===------------7===------------7===---|
D|-7===-8=-5=-7===-7===-8=-5=-7===-7===---|
A|-5===-8=-5=-7===-5===-6=-5=-7===-5===---|
E|------6=-3=-5===------6=-3=-5===--------|


/ = slide up
\ = slide down
h = hammer on
p = pull off
b = bend























Tap to rate this tab
# A B C D E F G H I J K L M N O P Q R S T U V W X Y Z