Guitaretab - guitar tabs
Song name
# A B C D E F G H I J K L M N O P Q R S T U V W X Y Z

Brandi Carlile - Late Morning Lullaby tab

-------------------------------------------------------------------------------
		      LATE MORNING LULLABY  Brandi Carlile
-------------------------------------------------------------------------------
Tabbed by: Steph
Email: cdashber@gmail.com

Standard Tuning

**Capo 4**

Intro:
                 D                 Em          F#m         G 
e|------------------------------------------------------------|
B|------------------------------------------------------------|
G|-------------------------------------------------2-0--------|
D|-----0/2-0-----(0)------0/2-0---0-2------0/2-2-4-----4-2-0--|
A|-0/2-------2-0------0/2-------2------0/2--------------------|
E|------------------------------------------------------------|

                 D                 Em          F#m          G
e|------------------------------------------------------------|
B|------------------------------------------------------------|
G|-----------------------------------------------2---0--------|
D|-----0/2-0-----(0)------0/2-0---0-2------0/2-2---4---4-2-0--|
A|-0/2-------2-0------0/2-------2------0/2--------------------|
E|------------------------------------------------------------|

   D                        Em
As soon as my eyes shut the slide show begins
F#m                       Gm
Yesterday is gone now and panic sets in
       D                          Em
With a weight upon my chest and a ghost upon my back
        F#m                  G
And the numbing sensation of everything I lack that leaves me
[ Tab from: http://www.guitaretab.com/b/brandi-carlile/89970.html ]
D         A/C#      Bm   F#m
Dreaming, dreaming, dreaming,
     G    A     D
Your real world away

    G          Em                    D
And beautiful, beautiful bright eyes lie
     G          Em                    D
Only beautiful, beautiful bright eyes cry
        G    G/F#    Em A D
Singing late morning lullaby

                 Em          F#m          G
e|------------------------------------------|
B|------------------------------------------|
G|-----------------------------2---0--------|
D|------0/2-0---0-2------0/2-2---4---4-2-0--|
A|--0/2-------2------0/2--------------------|
E|------------------------------------------|

    D                        Em
The first sign of morning is gray and alarming
    F#m                   Gm
It's so disappointing the day has come so soon
          D                            Em
While the rest of the world greets the day and feels new
       F#m               G
I will push it away just like I always do, I will be

D         A/C#      Bm   F#m
Dreaming, dreaming, dreaming,
     G    A     D
Your real world away

    G          Em                    D
And beautiful, beautiful bright eyes lie
     G          Em                    D
Only beautiful, beautiful bright eyes cry
        G    G/F#    Em A D
Singing late morning lullaby
G                 D
Late morning lullaby

Em F#m G

        D                     Em
I would darken my window so I can fall asleep
          F#m                       G
While the critics frown down on the hours I keep that leave me

D         A/C#      Bm   F#m
Dreaming, dreaming, dreaming,
     G    A     D
Your real world away
Related for Late Morning Lullaby tab