Guitaretab - guitar tabs
Song name
# A B C D E F G H I J K L M N O P Q R S T U V W X Y Z

Brandi Carlile - The Heartache Can Wait tab

-----------------------------------------------------------------------
              THE HEARTACHE CAN WAIT Ė Brandi Carlile
-----------------------------------------------------------------------
Tabbed by: Steph
Email: cdashber@gmail.com

Standard Tuning

**Note: Chords used tabbed at the bottom.**

Intro:

  Bm       Bm7/A   G      D/F#   Em     Em7     A A Amaj7 A7
e|----2-7-2-5-2--------3-0-2----------0-------------|
B|--3-----------2--0-3-------3------0---2-3-0-------|
G|-----------------------------2--0-------------2---|
D|--------------------------------------------4-----|
A|--------------------------------------------------|
E|--------------------------------------------------|


D                   G          D
Youíre talkiní bout leaviní
                 G             D
Itís right about Christmastime
              G                D
Thinkiní bout moviní on  
                G       A   A Amaj7 A7
I think I might die inside

D                 G              D
Iím thinkiní bout years gone by
                 G                 D
Iím thinkní bout church at midnight
                  G          D
Iím thinkiní bout letting go
                 G             A    A Amaj7 A7
I think it might finally be alright     
                        D 
but this is where we shine

D      A/C#           G
Silver bells and open fires
    D/F#                     D
And songs we used to sing
         A/C#            G
One more chance to be inspired
   D/F#
Is what Iím offering
    Em          Bm
If love is not enough
     Em             A    A Amaj7 A7
Then stay with me because
                  D    G D G 
The heartache can wait

[ Tab from: http://www.guitaretab.com/b/brandi-carlile/99884.html ]
D              G        D  
Itís not about hanging on
               G           D
Itís making my deal with God
                G            D
If I could call one last truce
               G         A   A Amaj7 A7
Weíve given it all weíve got

D             G          D
And Iím gonna catch my breath
              G           D
And make it a long December
             G          D 
If weíve got nothing left
              G             A   A Amaj7 A7               
This could be worth remembering
                     D
With a smile upon my face

D      A/C#           G
Silver bells and open fires
    D/F#                     D
And songs we used to sing
         A/C#            G
One more chance to be inspired
   D/F#
Is what Iím offering
    Em          Bm
If love is not enough
     Em             A    A Amaj7 A7
Then stay with me because


D      A/C#           G
Silver bells and open fires
    D/F#                     D
And songs we used to sing
         A/C#            G
One more chance to be inspired
   D/F#
Is what Iím offering
    Em          Bm
If love is not enough
     Em             A    A Amaj7 A7
Then stay with me because
                  Bm
The heartache can wait

  Bm       Bm7/A   G      D/F#   Em     Em7     A A Amaj7 A7
e|----2-7-2-5-2--------3-0-2----------0-------------|
B|--3-----------2--0-3-------3------0---2-3-0-------|
G|-----------------------------2--0-------------2---|
D|--------------------------------------------4-----|
A|--------------------------------------------------|
E|--------------------------------------------------|

D G D




Chords:  
  Bm7/A D/F# Em7 Amaj7 A7 A/C#
e|--2----0----0----0---0---0-----|
B|--3----3----0----3---3---3-----|
G|--2----2----0----2---0---3-----|
D|--4----0----0----3---3---3-----|
A|--0----0----2----0---0---4-----|
E|--x----2----0----x---x---x-----|
Related for The Heartache Can Wait tab