Brandon Boyd - Courage And Control chords

-----------------------------------------------------------------------------
			     Courage and Control - Brandon Boyd
-----------------------------------------------------------------------------
Tabbed by: Pablo
Email:pablothefantasic@gmail.com

**Tuning: Eb (half step down or tune down to D and capo at 1st fret**
[Those who have this in standard tuning need to play along with the CD]

**When I play the chorus solo I add the piano parts by playing the 8th, 7th and 
9th in that order while strumming Ab and F. Sounds harder than it is.



There are three chords in this whole song… strum to match

Verse and Chorus are virtually the same:

eb|----0--------------------------------------------------------------------|
Bb|----2--------------------------------------------------------------------|
Gb|----2--------------------------------------------------------------------|
Db|----2------------------------4-------------------------------------------|
Ab|----0------------------------4-------------------------------------------|
Eb|-----------------------------2-------------------------------------------|

V: The Boulevard is bustling, a vast and wrinkled muscling
C:    …hair down,         …permission  


eb|---0----------------------------------------------------------0----------|
Bb|---0----------------------------------------------------------0----------|
Gb|---x----------------------------------------------------------x----------|
Db|---2-----------------------------------------------4-----7----2----------|
Ab|---2-----------------------------------------------4-----7----2----------|
Eb|---0-----------------------------------------------2-----5----0----------|

V: Is pulled over my eyes and I know I don't belong…
C: control              but you start by letting go… 

Bridge:

eb|----0---------------0----------------------------------------------------|
Bb|----0---------------0----------------------------------------------------|
Gb|----x---------------x----------------------------------------------------|
Db|----2-----4---------2----------4-----------------------------------------|
Ab|----2-----4---------2----------4-----------------------------------------|
Eb|----0-----2---------0----------2-----------------------------------------|

B:       Oh    I think    I feel    I see… 

eb|---------------------0---------------------------------------------------|
Bb|---------------------0---------------------------------------------------|
Gb|---------------------x---------------------------------------------------|
Db|-------4-------------2---------------------------------------------------|
Ab|-------4-------------2---------------------------------------------------|
Eb|-------2-------------0---------------------------------------------------|

B: He who asks…    receives...
Tap to rate this tab
 
# A B C D E F G H I J K L M N O P Q R S T U V W X Y Z