Song name
# A B C D E F G H I J K L M N O P Q R S T U V W X Y Z

Brandon Boyd - Runaway Train chords

Artist: Brandon Boyd
Album: The Wild Trapeze
Song: Runaway Train

 Intro - Verse

E|---------------------------------------------|
B|---------------------------------------------|
G|-6-6-6-6-x-x--2-2-2-2-x-x------4-4-4-4-x-x-x-|
D|-7-7-7-7-x-x--3-3-3-3-x-x--x3--5-5-5-5-x-x-x-|
A|-7-7-7-7-x-x--3-3-3-3-x-x------5-5-5-5-x-x-x-|
E|-5-5-5-5-x-x--1-1-1-1-x-x------3-3-3-3-x-x-x-|

 Chorus


E|----------------------------------|
B|----------------------------------|
G|-2-2-2-2-2-2-2-2--4-4-4-4-4-4-4-4-|
D|-3-3-3-3-3-3-3-3--5-5-5-5-5-5-5-5-| x4
A|-3-3-3-3-3-3-3-3--5-5-5-5-5-5-5-5-|
E|-1-1-1-1-1-1-1-1--3-3-3-3-3-3-3-3-|


Great Song by Brandon Boyd (Incubus), Enjoy!
Tap to rate this tab
 
# A B C D E F G H I J K L M N O P Q R S T U V W X Y Z