Song name
# A B C D E F G H I J K L M N O P Q R S T U V W X Y Z

Brandon Boyd - Revenge Of The Spectral Tiger tab

~160bpm

4/4

Intro start after 1/2 rest)
E------------|------------------------------------------------------------|
B------------|------------------------------------------------------------|
G------------|------------------------------------------------------------|
D------------|--------0------------0--------------------------------------|
A------0---0-|--------4------------2------------2-----2-------0---0-------|
E----5---5---|--5--5--5-5-0--3--3--3-3-0--1--1--1--1--1--1--5---5---------|

Verse (repeat 3x)

E------------------------------------------------------------|
B------------------------------------------------------------|
G------------------------------------------------------------|
D--------0------------0--------------------------------------|
A--------4------------2------------2-----2-------0---0-------|
E--5--5--5-5-0--3--3--3-3-0--1--1--1--1--1--1--5---5---------|

4th time

E-----------------------------------------------0------------|
B-----------------------------------------------3------------|
G-----------------------------------------------0------------|
D--------0------------0-------------------------2------------|
A--------4------------2------------2-----2------3------------|
E--5--5--5-5-0--3--3--3-3-0--1--1--1--1--1--1----------------|

Pre-Chorus

E---3---3-3-3-3---3-3-3-3---0---0-0-0-0---0-0-0-0------------|
B---2---2-2-2-2---3-2-2-2---2---2-2-2-2---2-2-2-2------------|
G---3---3-3-3-3---3-3-3-3---2---2-2-2-2---2-2-2-2------------|
D---0---0-0-0-0---0-0-0-0---2---2-2-2-2---2-2-2-2------------|
A---------------------------0---0-0-0-0---0-0-0-0--0-2-------|
E------------------------------------------------------------|

E-------0-------0---0---0-0-0-0---0---0-0-0-0-----0----------|
B-------3-------3---3---3-3-3-3---3---3-3-3-3-----3----------|
G-------0-------0---0---0-0-0-0---0---0-0-0-0-----0----------|
D-------2-------0---0---0-0-0-0---0---0-0-0-0-----2----------|
A---3---3---2---2---2---2-2-2-2---2---2-2-2-2-----3----------|
E-------------------3---3-3-3-3---3---3-3-3-3----------------|

E---3---3-3-3-3---3-3-3-3---0---0-0-0-0---0-0-0-0------------|
B---2---2-2-2-2---3-2-2-2---2---2-2-2-2---2-2-2-2------------|
G---3---3-3-3-3---3-3-3-3---2---2-2-2-2---2-2-2-2------------|
D---0---0-0-0-0---0-0-0-0---2---2-2-2-2---2-2-2-2------------|
A---------------------------0---0-0-0-0---0-0-0-0--0-2-------|
E------------------------------------------------------------|

E-------0-------0---0---0-0-0-0---0---0-0-0-0----------------|
B-------3-------3---3---3-3-3-3---3---3-3-3-3----------------|
G-------0-------0---0---0-0-0-0---0---0-0-0-0----------------|
D-------2-------0---0---0-0-0-0---0---0-0-0-0----------------|
A---3---3---2---2---2---2-2-2-2---2---2-2-2-2-----0-2--------|
E-------------------3---3-3-3-3---3---3-3-3-3----------------|

E-------0-------0---0---0-0-0-0---0---0-0-0-0----------------|
B-------3-------3---3---3-3-3-3---3---3-3-3-3----------------|
G-------0-------0---0---0-0-0-0---0---0-0-0-0----------------|
D-------2-------0---0---0-0-0-0---0---0-0-0-0----------------|
A---3---3---2---2---2---2-2-2-2---2---2-2-2-2----0---0-------|
E-------------------3---3-3-3-3---3---3-3-3-3--5---5---------|

Chorus (repeat 4x)

E------------------------------------------------------------|
B------------------------------------------------------------|
G------------------------------------------------------------|
D--------0------------0--------------------------------------|
A--------4------------2------------2-----2-------0---0-------|
E--5--5--5-5-0--3--3--3-3-0--1--1--1--1--1--1--5---5---------|

Repeat Verse

Repeat Pre-Chorus

Repeat Chorus

Repeat Pre-Chorus

Outro(repeat 3x)

E------------------------------------------------------------|
B------------------------------------------------------------|
G------------------------------------------------------------|
D--------0------------0--------------------------------------|
A--------4------------2------------2-----2-------0---0-------|
E--5--5--5-5-0--3--3--3-3-0--1--1--1--1--1--1--5---5---------|

Last time

E------------------------------------------------------------|
B------------------------------------------------------------|
G------------------------------------------------------------|
D--------0------------0--------------------------------------|
A--------4------------2--------2-----2-----2-----------------|
E--5--5--5-5-0--3--3--3-3-0----1-----1-----1-----------------|

Hope you enjoy it!!!

Lyrics:

Here in our gilded cage
We turn on the news and are entertained
We are an army of semi informed, chemically maimed
Paper Tigers that, only the cusp, only the crown
This isn’t the only way down

Either way it’s death by a thousand cuts
But you would think we’d choose our blade
But by the way we carry on like nothing's wrong
One could argue pointedly, that maybe we deserve to be

Caged
Caged
Caged
Caged

Here in our gilded cage
We are infantilized continuously
Our parents who sow the seed
That won’t let it grow into a tree

A spectral tiger is born
With beautiful stripes and porcelain teeth
Find More lyrics at www.sweetslyrics.com
And the ghost of the hunt underneath

Either way it’s death by a thousand cuts
But you would think we’d choose our blade
But by the way we carry on like nothing’s wrong
One could argue pointedly that maybe we deserve to be

Caged
Caged
Caged
Caged

Either way it’s death by a thousand cuts
But you would think we’d choose our blade
But by the way we carry on like nothing’s wrong
One could argue pointedly that maybe we deserve to be

Caged
Caged
Caged
Caged
Tap to rate this tab
 
# A B C D E F G H I J K L M N O P Q R S T U V W X Y Z