Brandon Flowers - Swallow It tab

# This is the base of the song with some lead guitar ommited, i will be updating. 
If anyone has the lead tabbed send it to me #

Song      ~ Swallow It
Artist    ~ Brandon Flowers
Album     ~ Flamingo
Tabbed by ~ Pilki 02 (Get the Reference)
            jtoland

 
          Seek out    the light        between 
          Instead of  slipping         through 
E  :----------5-----|----------5-----|---------7------|--------7-------|
B  :------6-------6-|------6-------6-|-----6-------6--|----6-------6---|
G  :--7-------------|--7-------------|-7--------------|-7--------------|
D  :----------------|----------------|----------------|----------------|
A  :----------------|----------------|----------------|----------------|
E  :----------------|----------------|----------------|----------------|
    
    Time   and  confusion              glowing up   ahead 
    You   bit off    more    much    more than you could chew  you could not
E  :--------6-------|--------6-------|----------6-----|----------5-----|
B  :----6-------6---|----6-------6---|------6-------6-|------6-------6-|
G  :7---------------|7---------------|--7-------------|--5-------------|
D  :----------------|----------------|----------------|----------------|
A  :----------------|----------------|----------------|----------------|
E  :----------------|----------------|----------------|----------------|
      
      Swallow    it                 no baby  your  not    ready        slow
      Down             and   take the    time to   evolve      you could not
      Swallow    it                 no baby  your  not    ready        slow  
E  :----------------|-----------------|----------------|----------------|
B  :------6---8---8-|--------6---10---|------------6---|-------6---8----|
G  :--7-------------|--7--------------|--7-----7-------|--7-------------|
D  :----------------|-----------------|----------------|----------------|
A  :----------------|-----------------|----------------|----------------|
E  :----------------|-----------------|----------------|----------------|

    Down
E  :----------------|----------------|--10---12---8---3-|
B  :--------6---6---|--------6---6---|------------------|
G  :--7-------------|--7-------------|------------------|
D  :----------------|----------------|------------------|
A  :----------------|----------------|------------------|
E  :----------------|----------------|------------------|
           
          We had a     lot      to    learn  
          Time came to clear  your   slate 
E  :----------5-----|----------5-----|---------7------|--------7-------|
B  :------6-------6-|------6-------6-|-----6-------6--|----6-------6---|
G  :--7-------------|--7-------------|-7--------------|-7--------------|
D  :----------------|----------------|----------------|----------------|
A  :----------------|----------------|----------------|----------------|
E  :----------------|----------------|----------------|----------------|
      
      Table     manners and grace      how to wait your turn   when
      You had too    much       had    too much on your plate you could not
E  :--------6-------|--------6-------|----------6-----|----------5-----|
B  :----6-------6---|----6-------6---|------6-------6-|------6-------6-|
G  :7---------------|7---------------|--7-------------|--5-------------|
D  :----------------|----------------|----------------|----------------|
A  :----------------|----------------|----------------|----------------|
E  :----------------|----------------|----------------|----------------|

      # Lead guitar plays the below section Throughout second chorus and toward end #    
E  :----------------|----------------|----------------|----------------|--10---12---8---3-|
B  :--8---8---8---8-|--8---6---8---10|--8---8---8---8-|--8---6---8---10|------------------|
G  :----------------|----------------|----------------|--------------- x6-----------------|
D  :----------------|----------------|----------------|----------------|------------------|
A  :----------------|----------------|----------------|----------------|------------------|
E  :----------------|----------------|----------------|----------------|------------------|

      # Outro #
E  :--8--------8--10-|--8-10-6-6-6---6-8-8|
B  :-----6--6--------|-------------6------|
G  :-----------------|--------------------|x3
D  :-----------------|--------------------|
A  :-----------------|--------------------|
E  :-----------------|--------------------|

Verse 1
Seek out the light between
Time and confusion glowing up ahead
Instead of slipping through
You bit off more, much more than you could chew

Chorus
You could not Swallow It
No baby you're not ready, slow down
And take the time to evolve
You could not Swallow It
No baby you're not ready, slow down

Verse 2
We had a lot to learn
Table manners and grace, how to wait your turn when
Time came to clear your slate
You had too much, had too much on your plate

Chorus
You could not Swallow It
No baby you're not ready, slow down
And take the time to evolve
You could not Swallow It
No baby you're not ready, slow down

Verse 3
Take your medicine and crawl before you walk
Think it through before you open you open your mouth to talk
Be an advocate of joy
Find your little heart's desire and

Chorus
Follow it
Whoa baby you're not ready, slow down
And take the time to evolve
You could not Swallow It
No baby you're not ready, slow down

(Baby you're not ready!)

You could not Swallow It
No baby you're not ready, slow down
And take the time to evolve
You could not Swallow It
No baby you're not ready, now

(Slow down!)

No, no, no, no!

Exitude
Don't be afraid, this is your year
It's gonna be alright, you're a performer
Just take your time, but not too much time

No, no, no, no!
                                          fin.
Tap to rate this tab
 
# A B C D E F G H I J K L M N O P Q R S T U V W X Y Z