Song name
# A B C D E F G H I J K L M N O P Q R S T U V W X Y Z

Brandon Flowers - Losing Touch Live tab

-----------------------------------------------------------------------------
                    Losing Touch (Live) - Brandon Flowers
-----------------------------------------------------------------------------
Tabbed by: Travis646
Email: Travis646@hotmail.com

Tuning: EADGBe

This is only the introduction, the chords are the same as in The Killer's version. I
only tabbed the lead guitar, the rhythm guitar is simply playing the scale of the key. (As
you can hear in the background)

/= slide
h= hammer on

e|-----------------------------------------------------------|
B|-----------------------------------------------------------|
G|-----------------------------------------------------------|
D|--9-9-9-9--7---9-9-9-9--7---9-9-9-9--7/14-14-14-14-14-12---|
A|-----------------------------------------------------------|
E|-----------------------------------------------------------|




e|-----------------------------------------------------------|
B|-----------------------------------------------------------|
G|-----------------------------------------------------------|
D|--9-9-9-9--7---9-9-9-9--7---9-9-9-9-7---5-5-5-5--3---------|
A|---------------------------------------------------5-------|
E|-----------------------------------------------------------|




e|-----------------------------------------------------------|
B|-----------------------------------------------------------|
G|-----------------------------------------------------------|
D|-----3h5--3---------3h5--3---------------------------------|
A|--5---------5-----5--------5-------------------------------|
E|-----------------------------------------------------------|


Hint: You can also use pull-offs, when you're getting from G to F.

Watch this to figure out the rhythm: www.youtube.com/watch?v=9XzMkr85TOk

Have fun!
Tap to rate this tab
# A B C D E F G H I J K L M N O P Q R S T U V W X Y Z