Guitaretab - guitar tabs
Song name
# A B C D E F G H I J K L M N O P Q R S T U V W X Y Z

Brandon Heath - Love Never Fails tab

e-------------------------------------------------|
b-2--1----------------------2--1------------------|
g-------------------------------------------------|
d--------1--3------------------------1----3-------|
a-------------------------------------------------|
E-------------------------------------------------|

--------------------------------------------------|
--2--1--------------------------------------------|
------------------------1-----1----3--------------|
--------1---3--------------1----------------------|
--------------------------------------------------|
--------------------------------------------------|
[ Tab from: http://www.guitaretab.com/b/brandon-heath/191774.html ]
e-------------------------------------------------|
b-2--1----------------------2--1------------------|
g-------------------------------------------------|
d--------1--3------------------------1----2-------|
a-------------------------------------------------|
E-------------------------------------------------|
   Love is not proud         Love does not boast
--------------------------------------------------|
--2--1--------------------------------------------|
------------------------1------1----3-------------|
--------1---3--------------1----------------------|
--------------------------------------------------|
--------------------------------------------------|
  Love after all      Matters the most
--------------------------------------------------|
-2---1---------------------2--1-------------------|
--------------------------------------------------|
-----------1--3---------------------1----2--------|
--------------------------------------------------|
--------------------------------------------------|
Love does not run         Love does not hide
--------------------------------------------------|
--2--1--------------------------------------------|
------------------------1-----1----3--------------|
--------1---3--------------1----------------------|
--------------------------------------------------|
--------------------------------------------------|
Love does not keep   locked  inside
---------------------------------------------------|
-------------1---2---4--2--1-----------------------|
---0--1---3-------------------1--------------------|
-3-------------------------------------------------|
---------------------------------------------------|
---------------------------------------------------|
Love is a river that flows through
-------------------------------------------------|
-----2--1--------2--1-------------2-1------------|
-----------3-------------------------------------|
3----------------------1---3------------1---3----|
-------------------------------------------------|
-------------------------------------------------|
Love never fails  you
-------------------------------------------------|
-2--1----------------------2--1------------------|
-------------------------------------------------|
--------1--3------------------------1----2-------|
-------------------------------------------------|
-------------------------------------------------|
Love will sustain          Love will provide
--------------------------------------------------|
--2--1--------------------------------------------|
------------------------1-----1----3--------------|
--------1---3--------------1----------------------|
--------------------------------------------------|
--------------------------------------------------|
Love will not cease   At the end of time
-------------------------------------------------|
-2--1----------------------2--1------------------|
-------------------------------------------------|
--------1--3------------------------1----2-------|
-------------------------------------------------|
-------------------------------------------------|
Love will protect         Love always hopes
--------------------------------------------------|
--2--1--------------------------------------------|
------------------------1-----1----3--------------|
--------1---3--------------1----------------------|
--------------------------------------------------|
--------------------------------------------------|
Love still believes    When you donít
---------------------------------------------------|
-------------1---2---4--2--1-----------------------|
---0--1---3-------------------1--------------------|
-3-------------------------------------------------|
---------------------------------------------------|
---------------------------------------------------|
Love is arms that are holding you
-------------------------------------------------|
-----2--1--------------2-1-----------------------|
-----------3-----------------1----3--3--3--3-----|
3------------------3-----------------------------|
-------------------------------------------------|
-------------------------------------------------|
Love never fails  you     (Music Break)
-------------------------------------------------|
-------2-1---------------------------------------|<
--------------1----3--3--3--3--------------------|<<
---3---------------------------------------------|<<<
-------------------------------------------------|<<<<
-------------------------------------------------|<<<<<
                                            (Music Break)
-------------------------------------------------|<<<<<
-------2-1---------------------------------------|<<<<
--------------1----3--3--3--3--------------------|<<<
---3---------------------------------------------|<<
-------------------------------------------------|<
-------------------------------------------------|

-------------------------------------------------|
-4--4----4-----4----2----1-----------------------|
----------------------------3--------------------|
-------------------------------------------------|
-------------------------------------------------|
-------------------------------------------------|
When my heart wonít make a sound
-------------------------------------------------|
-4--4----4-----4----2----1-----------------------|
----------------------------3--------------------|
-------------------------------------------------|
-------------------------------------------------|
-------------------------------------------------|
When I canít turn back around
--------------------1-----------------------------|
-4--4----4-----4--------1-------------------------|
----------------------------1---------------------|
-----------------------------3--------------------|
--------------------------------------------------|
--------------------------------------------------|
When the sky is falling down
-------------------------------------------------|
-2----1------2--1--------------2--1--------------|
---------1----------1----1-------------1---1-----|
-------------------------------------------------|
-------------------------------------------------|
-------------------------------------------------|
Nothing is greater than this  Greater than this
--------------------------------------------------|
-2---1---------------------2--1-------------------|
--------------------------------------------------|
-----------1--3---------------------1----2--------|
--------------------------------------------------|
--------------------------------------------------|
Love is right here         Love is alive
--------------------------------------------------|
--2--1--------------------------------------------|
------------------------1-----1----3--------------|
--------1---3--------------1----------------------|
--------------------------------------------------|
--------------------------------------------------|
Love is the way       the truth   the life
---------------------------------------------------|
-------------1---2---4--2--1-----------------------|
---0--1---3-------------------1--------------------|
-3-------------------------------------------------|
---------------------------------------------------|
---------------------------------------------------|
Love is the river than flows through
---------------------------------------------------|
-------------1---2---4--2--1--1--------------------|
---0--1---3----------------------------------------|
-3-------------------------------------------------|
---------------------------------------------------|
---------------------------------------------------|
Love is the arms that are holding you
-1----------------------1----3----4---------------|
---4--1---1---1---4-------------------------------|
--------------------------------------------------|
--------------------------------------------------|
--------------------------------------------------|
--------------------------------------------------|
Love is the place you will fly to
-------------------------------------------------|
-----2--1--------2--1-------------2-1------------|
-----------3-------------------------------------|
3----------------------1---3------------1---3----|
-------------------------------------------------|
-------------------------------------------------|
Love never fails  you
Related for Love Never Fails tab