Song name
# A B C D E F G H I J K L M N O P Q R S T U V W X Y Z

Brandon Heath - Love Never Fails tab

 ...:::Brandon Heath:::... ((---|love Never Fails|---)) <<>>

    ((Intro))
e|----------------]                  e|---------------------]
a|-1-0------------]                  a|-1-0-----------------]
d|------------0---]..::X2            d|-----------0---0--2--]
g|-----0-0-h2-----]                  g|-----0-0-h2--0-------]
b|----------------]                  b|---------------------]
E|----------------]  Then...I farted E|---------------------]

  -_->Verse<-_-
e|----------------]                  e|---------------------]
a|-1-0------------]                  a|-1-0-----------------]
d|------------0---]..::X2            d|-----------0---0--2--]
g|-----0-0-h2-----]                  g|-----0-0-h2--0-------]
b|----------------]                  b|---------------------]
E|----------------]                  E|---------------------]
      
      ^---------------Both x2----------------^


-+Chorus+-
   C        D        G        C
e|-0--0-0-0-2--2-2-2-3--3-3-3-0----]
a|-1--1-1-1-3--3-3-3-3--3-3-3-1----]
d|-0--0-0-0-2--2-2-2-0--0-0-0-0----]
g|-2--2-2-2-0--0-0-0-0--0-0-0-2----]
b|-3--3-3-3-0--0-0-0-2--2-2-2-3----]
E|-0--0-0-0-0--0-0-0-3--3-3-3-0----]
   "Love Is A River...."

   C  D  G
e|-0--2--3---]
a|-1--3--3---]
d|-0--2--0---]
g|-2--0--0---]
b|-3--0--2---]
E|-0--0--3---]
"Love Never Fails You..."


->Verse<-((played once))

Then..... -Chorus-

Then This Part...



Chords,,, C....D.....C....D.....C.....D......C......D..... C...D...G..

 ((listen to song for struming...)) 

UMMM THATS IT....

Tap to rate this tab
# A B C D E F G H I J K L M N O P Q R S T U V W X Y Z