Song name
# A B C D E F G H I J K L M N O P Q R S T U V W X Y Z

Brandon Heath - Love Never Fails tab

Capo 1

 2X
e|---------------------------------------------------------------------------|
B|-1---0------h2---------------1---0------h2--------------1--0---------------|
G|-0---------------0-----------0---------------0--------------------------0--|
D|--------0--0h2-------2--------------0--0h2-------2-------------0---0h2-----|
A|-------------------------------------------------------------------3-------|
E|-3---------------------------3--------------------------0------------------|


e|------------------.--------------------------------------------------------|
B|------------------.---------0---------0-------0-----------1--0----3--------|
G|----0-----2-----2-.---0---------2--------0--------0-----0------------------|
D|-0-----0-----0----.------2---------0--------0-----2-----2---------4--------|
A|------------------.-------------------------------3-----3---------5--------|
E|-3--------2-------.---0---------2--------3---------------------------------|


e|---------------------------------------------------------------------------|
B|-1---0------h2---------------1---0------h2---------------------------------|
G|-0---------------0-----------0---------------0-----------------------------|
D|--------0--0h2-------2--------------0--0h2-------2-------------------------|
A|---------------------------------------------------------------------------|
E|-3---------------------------3---------------------------------------------|


 2X
e|---------------------------------------------------------------------------|
B|-1---0------h2---------------1---0------h2--------------1--0---------------|
G|-0---------------0-----------0---------------0--------------------------0--|
D|--------0--0h2-------2--------------0--0h2-------2-------------0---0h2-----|
A|-------------------------------------------------------------------3-------|
E|-3---------------------------3--------------------------0------------------|


e|------------------.--------------------------------------------------------|
B|------------------.---------0---------0-------0-----------1--0----3--------|
G|----0-----2-----2-.---0---------2--------0--------0-----0------------------|
D|-0-----0-----0----.------2---------0--------0-----2-----2---------4--------|
A|--------------------------------------------------3-----3---------5--------|
E|-3--------2-------.---0---------2--------3---------------------------------|

Strum:
  C    Dadd9  C    Dadd9  C    Dadd9  C   Dadd9   C    Dadd9  EM   D/F#  G  C
e|0-----0-----0-----0-----0-----0-----0-----0-----0-----0-----0-----2----2--0-|
B|1-----3-----1-----3-----1-----3-----1-----3-----1-----3-----0-----3----2--1-|
G|0-----0-----0-----0-----0-----0-----0-----0-----0-----0-----0-----2----0--0-|
D|2-----4-----2-----4-----2-----4-----2-----4-----2-----4-----2-----0----0--2-|
A|3-----5-----3-----5-----3-----5-----3-----5-----3-----5-----2-----0----2--3-|
E|x-----x-----x-----x-----x-----x-----x-----x-----x-----x-----0-----2----3--x-|


e|---------------------------------------------------------------------------|
B|-1---0------h2---------------1---0------h2--------------1--0---------------|
G|-0---------------0-----------0---------------0--------------------------0--|
D|--------0--0h2-------2--------------0--0h2-------2-------------0---0h2-----|
A|-------------------------------------------------------------------3-------|
E|-3---------------------------3--------------------------0------------------|


e|------------------.--------------------------------------------------------|
B|------------------.---------0---------0-------0----------------0---------0-|
G|----0-----2-----2-.---0---------2--------0--------0-----0----------2-------|
D|-0-----0-----0----.------2---------0--------0-----2--------2----------0----|
A|--------------------------------------------------3------------------------|
E|-3--------2-------.---0---------2--------3--------------0----------2-------|


e|---------------------------------------------------------------------------|
B|--------0---------------0-----------0----------0---------1--0----3---------|
G|--0---------0----0-----------2----------0---------0----0-------------------|
D|-----0------2-------2-----------0----------0------2----2---------4---------|
A|------------3-------------------------------------3----3---------5---------|
E|--3--------------0-----------2----------3----------------------------------|

                                                          G
e|--------------------------------------------------------x-|
B|-1---0------h2---------------1---0------h2--------------x-|
G|-0---------------0-----------0---------------0----------0-|
D|--------0--0h2-------2--------------0--0h2-------2------0-|
A|--------------------------------------------------------2-|
E|-3---------------------------3--------------------------3-|
Tap to rate this tab
 
# A B C D E F G H I J K L M N O P Q R S T U V W X Y Z