Song name
# A B C D E F G H I J K L M N O P Q R S T U V W X Y Z

Brandon Heath - Love Never Fails tab

E-------------------------------------------------------------|
B--1-0---------------1-0--------------1-0---------------------|
G--------------0-----------------0----------------0---0---2---|
D------0---0h2-----------0---0h2----------0---0h2---0---0-----|
A--3-----------------3----------------3-----------------------|
E-------------------------------------------------------------|



              verse 1

E------------------------------------------------------------------|
B--1-0-----------------1-0-----------------1-0---------------------|
G--------------0-------------------0-------------------0---0---2---|
D------0---0h2-------------0---0h2-------------0---0h2---0---0-----|
A--3-------------------3-------------------3-----------------------|
E------------------------------------------------------------------|

   Love is not proud   Love does not boast  Love after all matters the
                                                most


   Love does not run   Love does not hide   Love does not keep locked
     
                                           inside

   

Em          D          G      C        C          D     C
Love is the river that flows through,  Love never fails you.


(to verse 2)                                 


 Em                          D      C                       D
When my heart won't make a sound,  When I can't turn back around,

 Em                     D                C
When the sky is falling down, nothing is greater than this,

   C
greater than this.



(To verse 3)

~Final Chorus~
 Em          D          G      C      Em           D              G      C
Love is the river that flows through, Love are the arms that are holding you

     Em         D              G  C   (voice only) 
And Love is the place you will fly to, Love never fails you.


E-------------------------------------------------------------|
B--1-0---------------1-0--------------1-0---------------------|
G--------------0-----------------0----------------0---0-------|
D------0---0h2-----------0---0h2----------0---0h2---0---0-----|
A--3-----------------3----------------3-----------------------|
E-------------------------------------------------------------|

end on G chord


verse 2:
love will sustain love will provide love will not cease at the end of time
love will protect love always hopes love still believes when you don't


Verse 3:
love is right here love is alive love is the way the truth the life
Tap to rate this tab
# A B C D E F G H I J K L M N O P Q R S T U V W X Y Z