Guitaretab - guitar tabs
Song name
# A B C D E F G H I J K L M N O P Q R S T U V W X Y Z

Brandy - Angel Of Mine tab

Song: Angel of Mine
Artist: Brandy
Transcribed by: Jed Romwill C. Peralta
Date: 12 July 2005
Email: jed066_mrsuave@yahoo.com

*+*+*+*+*+*+*+*+*+*+*+*+*+*+*+*+*+*+*+*+*+*+*+*+*+*+*+*+*+
Mga 'tol. Presenting to you my first tab. By request kasi ng kabarkada ko kaya ginawan 
ng tab.
At eto na nga!!
I am 90 percent sure with this tab. Maybe this is not the exact one but this may help 
on getting started.

+*+*+*+*+*+*+*+*+*+*+*+*+*+*+*+*+*+*+*+*+*+*+*+*+*+*+*+*+*

It goes something like this......
[ Tab from: http://www.guitaretab.com/b/brandy/137262.html ]
Intro and verse
e----------------------------------------|
B-3---------3---------3/0---2-----2--3-|
G--------2---------2------------2--------|
D-----0---------0------------------------|
A--------------------------------------2-|
E-3--------------------------------------|

Angel of mine......
e---------0---2---------|
B-5---------------0-----|
G-----0-------2---------|
D-----------------------|
A-4------------------2^-|
E--------------------3^-|


+*+*+*+*+*+*+*+*+*+*+*+*+*+*+*+*+*+*+*+*+*+*+*+*+*+*+*+*


(...mula sa mga napirata ko kay Sir Puko...)


 Any questions,                           Go ASC!!!
 comments,                                ievoluoy anaid
 Suggestions....                                   iribuz
 jed066_mrsuave@yahoo.com
 Pa-add na rin sa Friendster.
Related for Angel Of Mine tab