Song name
# A B C D E F G H I J K L M N O P Q R S T U V W X Y Z

Brantley Gilbert - Dirt Road Anthem tab

-------------------------------------------------------------------------------
			     Dirt Road Anthem - Brantley Gilbert/Colt Ford
-------------------------------------------------------------------------------
Tabbed by:  Trey 
Email:  yert_nosirrag@yahoo.com

Tuning: standard

Chords: B, G, D

e|--------------------2-----0h2------------------------2-------------------|
B|----------------2-----3---3----3-----------------2---3-------------------|
G|------------0-----------2-2------2-----------0-------2---2p0-------------|
D|-2h4--2-------0---0-------0--------2h4-2-------0---0-0-------4p2p0-------|
A|-2------2--------------------------2-----2-------------------------2-----|
E|----------3--------------------------------3-----------------------------|

Repeat this through the entire song.

************************************

| /   slide up
| \   slide down
| h   hammer-on
| p   pull-off
| ~   vibrato
| +   harmonic
| x   Mute note
| b   Bend
| pb  Pre-bend
| br  Bend release
| pbr Pre-bend release
| brb Bend release bend

************************************
Tap to rate this tab
# A B C D E F G H I J K L M N O P Q R S T U V W X Y Z