Song name
# A B C D E F G H I J K L M N O P Q R S T U V W X Y Z

Brantley Gilbert - Dirt Road Anthem tab

Hey Guys, this is a tab for Dirt Road Anthem, hope ya like it!


e-|---------------------0---0---0-----------|
b-|---------------------3---3---3-----------|
g-|--0h2-2---------0h2------2---2-----------|
d-|--0-----0-----0----------2---2-----------|
a-|----------2p0----------------------------|
E-|-----------------------------------------|


e-|---------------------0-------------------|
b-|---------------------3-------------------|
g-|--0h2-2---------0h2-----2p0--------------|
d-|--0-----0-----0-------------4p2p0--------|
a-|----------2p0---------------------2------|
E-|-----------------------------------------|


Alternate back and forth between the 2 every time and that's the song :)
Tap to rate this tab
# A B C D E F G H I J K L M N O P Q R S T U V W X Y Z