Song name
# A B C D E F G H I J K L M N O P Q R S T U V W X Y Z

Brantley Gilbert - Kick It In The Sticks tab

After looking at the tabs that are already posted i think people might want to see this 
one tabbed out. this is not the acoustic section...

if you have problems with playing the intro at full speed listen to it a few times 
straight, shut the music off and follow the tab. if you can't seem to get it still then the 
notes after palm muting need to be upstroked not down.

Standard E tuning

x = muting
~ = let it ring

(Intro)
E--------------------------------------------------|
B--------------------------------------------------|
G--------------------------------------------------|  x2
D-------x4~------x--x----------------------x-x-x---|
A-6-6-6-x2~4-4-4-x4-x2-2-2-x2-x2-2-2-4-4-4-x-x-x---|
E-4-4-4-x--2-2-2-x2-x0-0-0-x0-x0-0-0-2-2-2-x-x-x---|

(Verse)                   3rd time of Verse
E---------------         E--------------------------|
B---------------         B--------------------------|
G---------------         G--------------------------|
D--------------- x2      D--------------------------|
A-66--66--22--44         A-66--66--22--44--2~~~4~~~-|
E-44--44--00--22         E-44--44--00--22--0~~~2~~~-|

Chorus (Section 1) [modified intro]
E----------------------|
B----------------------|
G----------------------|
D-----4----------------| x2
A-6-6-2-4-4~-2-2~-4-4~-|
E-4-4---2-2~-0-0~-2-2~-|

Chorus Continued (Section 2)
E--------------------------|
B--------------------------|
G--------------------------|
D-----44-------------------|
A-66--22--44--44--2~~~4~~~-|
E-44------22--22--0~~~2~~~-|

INTRO!
E------------------------------------------------|
B------------------------------------------------|
G------------------------------------------------|
D-------x4~------x--x----------------------x-x-x-|
A-6-6-6-x2~4-4-4-x4-x2-2-2-x2-x2-2-2-4-4-4-x-x-x-|
E-4-4-4-x--2-2-2-x2-x0-0-0-x0-x0-0-0-2-2-2-x-x-x-|

VERSE!
(Verse)                   3rd time of Verse
E---------------         E--------------------------|
B---------------         B--------------------------|
G---------------         G--------------------------|
D--------------- x2      D--------------------------|
A-66--66--22--44         A-66--66--22--44--2~~~4~~~-|
E-44--44--00--22         E-44--44--00--22--0~~~2~~~-|

CHORUS! (both sections)
(Section 1)
E----------------------|
B----------------------|
G----------------------|
D-----4----------------| x2
A-6-6-2-4-4~-2-2~-4-4~-|
E-4-4---2-2~-0-0~-2-2~-|

(Section 2)
E--------------------------|
B--------------------------|
G--------------------------|
D-----44-------------------|
A-66--22--44--44--2~~~4~~~-|
E-44------22--22--0~~~2~~~-|

RHYTHM SECTION! (where the solo is...)
E------------------------------------------------|
B------------------------------------------------|
G------------------------------------------------|
D-----4--------------------4---------------------|
A-6-6-2-4-4~-2-2~-4-4~-6-6-2-4-4~-2-2~-4-4~-4~~~-|
E-4-4---2-2~-0-0~-2-2~-4-4---2-2~-0-0~-2-2~-2~~~-|

INSERT ACOUSTIC BRIDGE HERE

ELECTRIC BRIDGE!
E--------------------------|
B--------------------------|
G--------------------------|
D--------------------------|
A-66--66--22--44--2~~~4~~~-|
E-44--44--00--22--0~~~2~~~-|

CHORUS!
E----------------------|
B----------------------|
G----------------------|
D-----4----------------| x2
A-6-6-2-4-4~-2-2~-4-4~-|
E-4-4---2-2~-0-0~-2-2~-|

(Section 2)
E--------------------------|
B--------------------------|
G--------------------------|
D-----44-------------------|
A-66--22--44--44--2~~~4~~~-|
E-44------22--22--0~~~2~~~-|

OUTRO! (INTRO!)
E--------------------------------------------------|
B--------------------------------------------------|
G--------------------------------------------------|  x2
D-------x4~------x--x----------------------x-x-x---|
A-6-6-6-x2~4-4-4-x4-x2-2-2-x2-x2-2-2-4-4-4-x-x-x---|
E-4-4-4-x--2-2-2-x2-x0-0-0-x0-x0-0-0-2-2-2-x-x-x---|
Tap to rate this tab
# A B C D E F G H I J K L M N O P Q R S T U V W X Y Z