Song name
# A B C D E F G H I J K L M N O P Q R S T U V W X Y Z

Brantley Gilbert - Play Me That Song tab

This is for the acoustic version of the song, where he says
"this is a summer song, happy birthday and graduation" or something like that at
the beginning.
I just have the intro right now, I'm working on tabbing the whole song 100%
accurate in the meantime.

For timing, listen to the acoustic version on YouTube @ http://www.youtube.com/watch?v=62m1L5aQWec

CAPO 3rd Fret



E|-----------0-----|-----0--0h2p0-----|--------------|--|
B|--------3-----3--|---------------3--|-----------3--|--|
G|-----2-----------|--2---------------|--------2-----|--|
D|--0--------------|------------------|-----0--------|--|
A|-----------------|------------------|--4-----------|--|
E|-----------------|------------------|--------------|--|



E|-----------------|-----0--0h2p0-----|----------------0--|
B|-----------3-----|---------------3--|--------2--3p2-----|
G|--------2-----2--|------------------|-----2-------------|
D|-----0-----------|--0---------------|-------------------|
A|-----------------|------------------|--0----------------|
E|--3--------------|------------------|-------------------|
Tap to rate this tab
# A B C D E F G H I J K L M N O P Q R S T U V W X Y Z