Song name
# A B C D E F G H I J K L M N O P Q R S T U V W X Y Z

Bratmobile - Cherry Bomb tab

The intro is just the fourth fret on the A string repeatedly

E---------------------------------------------------------------------------|
B---------------------------------------------------------------------------|
G---------------------------------------------------------------------------|
D---------------------------------------------------------------------------|
A4-4-4-4-4-4-4-4-4-4-4-4-4-4-7---4-4-4-4-4-4-4-4-4-4-4-4-4-4-7-------------|
E---------------------------------------------------------------------------|

E---------------------------------------------------------------------------|
B---------------------------------------------------------------------------|
G---------------------------------------------------------------------------|
D---------------------------------------------------------------------------|
A4-4-4-4-4-4-4-4-4-4-4-4-4-4-7---4-4-4-4-4-4-4-4-4-4-4-4-4-4-7-------------|
E---------------------------------------------------------------------------|

E---------------------------------------------------------------------------|
B---------------------------------------------------------------------------|
G---------------------------------------------------------------------------|
D---------------------------------------------------------------------------|
A---------------------------74-4-4-4-4-4-4-7-4-4-4-4-4-4-4-7---------------|
E7-7-7-7-7-7-7-7-6-6-6-6-6-------------------------------------------------|

E---------------------------------------------------------------------------|
B---------------------------------------------------------------------------|
G---------------------------------------------------------------------------|
D---------------------------------------------------------------------------|
A---------------------------74-4-4-4-4-4-4-7-4-4-4-4-4-4-4-7---------------|
E7-7-7-7-7-7-7-7-6-6-6-6-6-------------------------------------------------|
Tap to rate this tab
 
# A B C D E F G H I J K L M N O P Q R S T U V W X Y Z