Song name
# A B C D E F G H I J K L M N O P Q R S T U V W X Y Z

Bratmobile - Cheap Trick Record tab

Riff A (Intro and Verse)

E|-----------------|
B|-----------------|
G|-2-2-2------0--1-|
D|-------2---------|
A|-----------------|
E|-----------------|


Riff B (Chorus)

E|-----------------|----------------|----------------|----------------|
B|-----------------|----------------|----------------|----------------|
G|-----------------|----------------|----------------|----------------|
D|-2---------------|----------------|----------------|----------------|
A|-2--(let ring)---|-------------2--|-3-----------3--|-2-----------2--|
E|-0---------------|----------------|----------------|----------------|

E|-----------------|----------------|----------------|----------------|
B|-----------------|----------------|----------------|----------------|
G|-----------------|----------------|----------------|----------------|
D|-2---------------|----------------|----------------|----------------|
A|-2--(let ring)---|-------------0--|-1------------1-|-0------------0-|
E|-0---------------|----------------|----------------|----------------|


Riff C (Outro)

E|-----------------|-----------------|
B|-----------------|-----------------|
G|-2-2-2------0--1-|-2-2-2------0--0-|
D|-------2---------|-------2---------|
A|-----------------|-----------------|
E|-----------------|-----------------|

Intro & Verse 1 - Riff A (12x)

You say that no one likes you
We know it's just a song
It's just that no one thinks about you or your stupid song
I saw the things you wrote about me
I didn't even know you still have my Cheap Trick record
I'm sure you have much more

Chorus 1 - Riff B (1x)

Don't write a song about it
Just gimme back my Cheap Trick record!

Verse 2 - Riff A (12x)

You keep your guilty conscience
I read it work for word
You'll never see the price I paid
There's no justice in this world
Drive your car into a bus and blame the other girl
I don't want it, I don't want it
Keep walking with that girl

Chorus 2 - Riff B (1x)

Yeah it's stiff competition
And I work hard every day
And I don't get flown around the world with the girls hanging on me like that

Verse 3 - Riff A (12x)

You say that no one likes you
We know it's just a song
It's just that no one thinks about you or your stupid song
I saw the things you wrote about me
I didn't even know that you still have my Cheap Trick record
Give it to me now!

Chorus 3 - Riff B (1x)

Don't write a song about it
Just gimme back my Cheap Trick record!

Outro - Riff C (1x)

That`s all there is to it. Enjoy!
Pog
Tap to rate this tab
 
# A B C D E F G H I J K L M N O P Q R S T U V W X Y Z