Song name
# A B C D E F G H I J K L M N O P Q R S T U V W X Y Z

Bratmobile - Richard chords

Highlighted       Show chord diagrams
e||-------------------------------------|
B||-------------------------------------|
G||----------7-7-7-7--4-4-4-4--5-5-5-5--|
D||-5-5-5-5--7-7-7-7--4-4-4-4--5-5-5-5--|  Verse
A||-5-5-5-5--5-5-5-5--2-2-2-2--3-3-3-3--|
E||-3-3-3-3-----------------------------|
     G         D       Bm       C

e||-----------------------------------|
B||-----------------------------------|
G||-4-4-4-4--5-5-5-5--7-7-7-7-7-7-7-7-| 
D||-4-4-4-4--5-5-5-5--7-7-7-7-7-7-7-7-| Refrain
A||-2-2-2-2--3-3-3-3--5-5-5-5-5-5-5-5-|
E||-----------------------------------|
      Bm      C            D  
Tap to rate this tab
# A B C D E F G H I J K L M N O P Q R S T U V W X Y Z