Bratmobile - Panik tab

Verse
|-------------------------------|
|-------------------------------|
|----------------5-5-5-5-8-8-8-8|
|5-5-5-5-8-8-8-8-5-5-5-5-8-6-8-8|
|5-5-5-5-8-8-8-8-3-3-3-3-6-6-6-6|
|3-3-3-3-6-6-6-6----------------|
Chorus
|---------------|
|---------------|
|8-8-8-7--6-6--5|
|8-8-8-7--6-6--5|
|6-6-6-5--4-4--3|
|---------------|
Tap to rate this tab
 
# A B C D E F G H I J K L M N O P Q R S T U V W X Y Z