Bratmobile - Cool Schmool tab

Verse
|--------------------------|
|--------------------------|
|--------------------------|
|--------------------------|
|8-8-8-8-6-6-6-4--4-4-4-4-6|
|--------------------------|
Chorus/Outro
|---------------------------------|
|---------------------------------|
|----------10-10-10-10-10-10-10-10|
|5--5-8--8-10-10-10-10-10-10-10-10|
|5--5-8--8-8--8--8--8--8--8--8--8-|
|3--3-6--6------------------------|
Bridge
|--------------|
|--------------|
|--------------|
|--------------|
|7-7-7-8--8-8-8|
|--------------|
Order:
verse
chorus
verse
chorus
bridge
verse
chorus
verse
chorus
bridge
verse
chorus
Tap to rate this tab
 
# A B C D E F G H I J K L M N O P Q R S T U V W X Y Z