Bratmobile - The Real Janelle tab

Verse:
E------------------------------------------------|
B------------------------------------------------|
G------------------------------------------------|
D------------------------2-------------------2---|
A-0-0-2-0-0-0-2-0-0-0-2----2-2-----------------2-|
E------------------------------3-3-2-2-2-1-1-1---|

Chorus
E------------------------------------------------|
B------------------------------------------------|
G------------------------------------------------|
D------------------------------------------------|
A------------------------------------------------|
E--3-3-2-2-2-1-1-1-1-1-1-------------------------|
Tap to rate this tab
 
# A B C D E F G H I J K L M N O P Q R S T U V W X Y Z