Song name
# A B C D E F G H I J K L M N O P Q R S T U V W X Y Z

Brave Bird - Ill See You At The Ring Of Fire tab

-----------------------------------------------------------------------------
                     ILL SEE YOU AT THE RING OF FIRE - Brave Bird
-----------------------------------------------------------------------------
Tuning: Standard

Intro: x4
e|----------------------------------------|
B|---1----5--3----/5-3/1---1-----3--1-----|
G|---0----0--0-----0-------2-----2--2-----|x4
D|---2---------------------3---3----3-----|
A|-3----3---------------------------------|
E|-----------------------1----------------|

Verse:
e|----------------------------------|
B|----------------------------------|
G|----------------------------------|x4
D|---------55555555-----------------|
A|-33333333333333337777777755555555-|
E|-11111111--------5555555533333333-|
   pm..............................

"When I grow up Ill call you when Im sober"
e|----------------------------------|
B|-1-------1-------1-------3--------|
G|-2-------0-------2-------0--------|x16
D|-3-------2-------2-------0--------|
A|-3-------3-------0-------2--------|
E|-------------------------3--------|

Interlude thing:
e|---------------------------------------------------------|
B|-------1--p------------1-1----1-----1-1--------3-5--3-1--|
G|----2-2--2-0-0----0--0-0-0----2--2--2-2-----0----0-------|
D|---3--------3----2--2--------2----2--------0--0----------|
A|-3-------------3-----------0-----------------------------|
E|-----------------------------------------3---------------|

Outro:
e|-----0---0---0-------0---0---0-------0---0---0-------3---3---3---|
B|-----1---1---1-------1---1---1-------1---1---1-------3---3---3---|
G|-2-2-2-2-2-2-2-2-0-0-0-0-0-0-0-0-2-2-2-2-2-2-2-2-0-0-0-0-0-0-0-0-|x16
D|-3-3-3-3-3-3-3-3-2-2-2-2-2-2-2-2-2-2-2-2-2-2-2-2-0-0-0-0-0-0-0-0-|
A|-3-3-3-3-3-3-3-3-3-3-3-3-3-3-3-3-0-0-0-0-0-0-0-0-2-2-2-2-2-2-2-2-|
E|-------------------------------------------------3-3-3-3-3-3-3-3-|


"Do you love me 'cause I think I'm going under"
e|----------------------------------|
B|-1-------1-------1-------3--------|
G|-2-------0-------2-------0--------|x2
D|-3-------2-------2-------0--------|
A|-3-------3-------0-------2--------|
E|-------------------------3--------|
Tap to rate this tab
 
# A B C D E F G H I J K L M N O P Q R S T U V W X Y Z