Song name
# A B C D E F G H I J K L M N O P Q R S T U V W X Y Z

Brave Bird - Its My Pride That I Swallow tab

-----------------------------------------------------------------------------
               ITS MY PRIDE THAT I SWALLOW - Brave Bird
-----------------------------------------------------------------------------
Tuning: Standard

e|-----------------------------------|
B|-7-7-7-7-7-7-7-7-7-7-7-7-7-7-7-7---|
G|--7-7-7-7-7-7-7-7-7-7-7-7-7-7-7-7--|
D|-----------------------------------|
A|-----------------------------------|
E|-----------------------------------|
 |                                   |
e|---5---5---5---5---5---5---5---5---|
B|---7---7---7---7---7---7---7---7---|
G|-7----7--7----7--7----7--7----7----|
D|-----------------------------------|
A|-----------------------------------|
E|-----------------------------------|

e|---10-10-7p5---5-|--|----------------|
B|---7--7------7---|--|----------------|
G|-----------------|x3|----------------|
D|-----------------|--|----------------|
A|-----------------|--|----------------|
E|-----------------|--|----------------|
 |                 |  |                |
e|-----------------|--|----------------|
B|---7-----7-----7-|--|--3--5-/7--5p3--|
G|-------7-----7---|x3|----------------|
D|-7---7-----7-----|--|----------------|
A|-----------------|--|----------------|
E|-----------------|--|----------------|

Goes back and forth between those two parts three times

e|------------------------------------|
B|------------------------------------|
G|--------0-4p0------------0-4p0------|
D|-5-55-5-------7p4-5-55-5-------7p4--|
A|-5-55-5-----------5-55-5------------|------|
E|-3-33-3-----------3-33-3------------|      |
                                            x4
e|--------------------------------|          |
B|--------------------------------|----------|
G|-7-77-79-11---11-11-12-14-------|
D|-x-xx-xx-x----x--x--x--x--------|
A|-5-55-57-9----9--9--10-12-------|
E|--------------------------------|

e|--------------------------------------------------------|
B|--------------------------------------------------------|
G|-14141414141414141414141414141414-77777777999911111112--|x4
D|-x-x-x-x-x-x-x-x-x-x-x-x-x-x-x-x--xxxxxxxxxxxxx-x-x-x---|
A|-12121212121212121212121212121212-5555555577779-9-9-10--|
E|--------------------------------------------------------|

then let the drums take you out
e|-----------------------|
B|-----------------------|
G|-11--------------------|
D|-x---------------------|
A|-9---------------------|
E|-----------------------|
Tap to rate this tab
# A B C D E F G H I J K L M N O P Q R S T U V W X Y Z