Song name
# A B C D E F G H I J K L M N O P Q R S T U V W X Y Z

Brave Saint Saturn - Gloria tab

-------------------------------------------------------------------------------
			     GLORIA - Brave Saint Saturn
-------------------------------------------------------------------------------
Tabbed by: fiveironbrad

This is just a version for the acoustic guitar.  =P

INTRO & VERSE:
    D                       Bm          A
e|---------------------------------------------------------------------------|
B|--------------------------------3-----2------------------------------------|
G|--------2--0--------------------4--------2---------------------------------|
D|-----4--------4-----2--------4-----2--------2------------------------------|
A|--5--------------5-----5--2--------------------4----(repeat)---------------|
E|---------------------------------------------------------------------------|

VERSE 1:
D      Bm      A      D   Bm     A
Gloria,   in excelsis deo,    glory.
D      Bm    A
Gloria,   glory.
D           Bm      A
Too weak to wonder.
D              Bm   A
Too tired to care.
D            Bm          A             (hold A)
Jesus Christ,    are you really there?
                                            

CHORUS 1:
D    G      Asus  A
I've fallen down.
D     G       Asus     A
Can't pull myself back up.
D   G        Asus  A
I'm going to drown.
D    G      Asus   A
Have mercy,   have mercy!

VERSE 2:
D      Bm      A      D   Bm     A
Gloria,   in excelsis deo,    glory.
D      Bm    A    (hold A)
Gloria,   glory.

CHORUS 2:
D   G      Asus  A
I need You now.
D     G        Asus  A
Not words or a feeling.
D   G     Asus  A
But Jesus Christ.
D    G       Asus  A  (hold A) 
I've hit the ceiling.

BRIDGE:
D          Bm
Your love, Your mercy,
G          Asus  A
Your light unending.
D          Bm
Your hope, Your peace,
G                Asus     A 
Your strength my heart is mending.  (x2)


(fades out on verse 2)


===============================================================================
Tap to rate this tab
# A B C D E F G H I J K L M N O P Q R S T U V W X Y Z