Song name
# A B C D E F G H I J K L M N O P Q R S T U V W X Y Z

Brave Saint Saturn - Binary tab

-------------------------------------------------------------------------------
			     BINARY - Brave Saint Saturn
-------------------------------------------------------------------------------
Tabbed by: donthavealife??
Email: b777vale@yahoo.com
Tuning: standard


I just want to say... this is possibly the greatest band of all time.

There was already a tab posted for this song, but it’s kinda incomplete, and I wanted to 
this without a capo since I don’t have one :). So, here goes... it’s the right notes at least.

Intro:
e|---------------------------------------------------------------------------|
B|--------4-----------4--------------4---------------------------------------|
G|-----3-----3-----3-----3--------3-----3------------------------------------|
D|--1-----------0--------------1-----------------8--6------------------------|
A|--------------------------3-----------------6------------------------------|
E|-----------------------------------------4---------------------------------|x2

Chords (strum pattern is easy, not gunna tab it):

    Eb Eb/D Cm  G#
e|--6---6---3---4----|
B|--8---8---4---4----|
G|--8---8---5---5----|
D|--8---8---5---6----|
A|--6---5---3---6----|
E|--------------4----|

Chords with words:
Eb                         Eb/D
Blessed is the man who does prevail
Cm                               G#
Doomed are the peacemakers when they fail
   Eb                            Eb/D
If hope springs eternal it never does here
  Cm                       G#
I guess i lost all my hope last year
   Eb      Eb/D       Cm           G#
I tried to steal the moon from the sky
     Eb
I am lost and lonely
      Eb/D
I drift in space
    Cm                  G#
My dreams are haunted by her face
Eb                                 Eb/D
Blessed are the drifters, the stars that die
      Cm                G#
Whose light expires, before goodbyes


Pre-Chorus:
“Goodbye, Goodbye”
e|---------------------------------------------------------------------------|
B|---------------------------------------------------------------------------|
G|---------------------------------------------------------------------------|
D|-6-6-6-6-8-8-8-8-----------------------------------------------------------|
A|-6-6-6-6-8-8-8-8-----------------------------------------------------------|
E|-4-4-4-4-6-6-6-6-----------------------------------------------------------|


Then the Chorus:
G#    A# Eb
Binary star
G#                   A#      Eb
You’re the brightest blue by far
   G#                A#   Cm
And up against the starry sea
G#                      A#        Eb
I thought that you were meant for me

the electric guitar does something like this:

e|---------------------------------------------------------------------------|
B|---------4-----------4-----------6-----------8-----------------------------|
G|------------5-----------5-----------7-----------8--------------------------|
D|------------------------------------------8--------------------------------|
A|------6-----------6-----------8--------6-----------------------------------|
E|---4-----------4-----------6-----------------------------------------------|

not sure about that very last part, but it doesn’t matter, I prefer to just strum the 
anyways. So, that’s the whole thing, except the bridge I spose. Oh well.

blessed is the man who does prevail
doomed are the peacemakers when they fail
if hope springs eternal it never does here
i guess i lost all my hope last year
i tried to steal the moon from the sky
i am lost and lonely
i drift in space
my dreams are haunted by her face
blessed are the drifters, the stars that die
whose light expires, before goodbyes
goodbye, goodbye

binary star
you're the brightest blue by far
and up against the starry sea
i thought that you were meant for me

blessed are the meek who shall inherit
the throes of death for all their merit
the right to stumble, to fall and perish
doomed are those who hope and cherish
i tried to steal the moon from the sky
you hide behind your broken wings
your dreams are all for better things
and in the dark we climb the slope
cause the bravest thing is always, always hope
goodbye, goodbye


| /  slide up
| \  slide down
| h  hammer-on
| p  pull-off
| ~  vibrato
| +  harmonic
| x  Mute note
===============================================================================
Tap to rate this tab
 
# A B C D E F G H I J K L M N O P Q R S T U V W X Y Z