Song name
# A B C D E F G H I J K L M N O P Q R S T U V W X Y Z

Brave Saint Saturn - Resistor Acoustic tab

Standard Tuning

I got this form watching a live acoustic performance by Reese Roper.

Intro
e--------------------------------------|
B-----1-------1-------1----------------|
G-------0-------0-------2--------------| 2X
D---2-------0-------2---------3----5---|
A-3-------2-------0-----------3----5---|
E-----------------------------1----3---|

Verse
e--0----0----0--------------|
B--1----1----1--------------|
G--0----0----2--------------|
D--2----0----2----3----5----|
A--3----2----0----3----5----|
E-----------------1----3----|

Chorus
e--------------------------------------|
B--------------------------------------|
G--------------------------------------|
D-3----5----7----9----3----5----9----9-|
A-1----3----5----7----1----3----7----7-|
E-1----3----5----7----1----3----7----7-|

Interlude
e--0----0----0--------------|
B--1----1----1--------------|
G--0----0----2--------------| 2X
D--2----0----2----3----5----|
A--3----2----0----3----5----|
E-----------------1----3----|

Verse
Chorus
Interlude
Verse
Chorus

Ending
e--------------------------------------|
B--------------------------------------|
G--------------------------------------| 2X
D-3----5----7----9----3----5----9----9-|
A-1----3----5----7----1----3----7----7-|
E-1----3----5----7----1----3----7----7-|


Well thats it.
Rate how good you think it is and
comment if there is something you
dont like or think needs changing
Tap to rate this tab
# A B C D E F G H I J K L M N O P Q R S T U V W X Y Z