Song name
# A B C D E F G H I J K L M N O P Q R S T U V W X Y Z

Brave Saint Saturn - Recall tab

-------------------------------------------------------------------------------
			    Recall  - brave saint saturn
-------------------------------------------------------------------------------
Tabbed by:Rather_dashing
Email: ewiniger@gmail.com



 Intro and verse

          f                        d#                d
e|---------------------------------------------------------------------------|
B|---------------------------------------------------------------------------|
G|--------------------------------------------------5----2-------------------|
D|------7---8---7---7----------5--7--5--5---------3---------5--3-------------|
A|-----8--8---8---8----------6--6--5--6--------5-----------------------------|
E|---------------------------------------------------------------------------|
       a#
e|---------------------------------------------------------------------------|
B|---------------------------------------------------------------------------|
G|-------5---2---------------------------------------------------------------|
D|----3---------5----3-------------------------------------------------------|
A|---------------------------------------------------------------------------|
E|--6------------------------------------------------------------------------|
  
Pre chorus
                                            
e|---------------------------------------------------------------------------|
B|---------------------------------------------------------------------------|
G|----------55555555---------------------------------------------------------|
D|--5555555533333333--2X-----55555555-----99999999-10101010101010------------|
A|--33333333-----------------33333333-----77777777-8-8-8-8-8-8-8---88888888--|
E|-----------------------------------------------------------------66666666--|
Not very sure about the chorus but the others are right
e|---------------------------------------------------------------------------|
B|---------------------------------------------------------------------------|
G|---------------------------------------------------------------------------|
D|--------------7-8x---3-8x---------5-8x-------------------------------------|
A|---3-8x-7-8x--5------1----3-8x----3---8-8x-3-8X----------------------------|
E|---1----5-----------------1-----------6----1-------------------------------|
Tap to rate this tab
 
# A B C D E F G H I J K L M N O P Q R S T U V W X Y Z