Song name
# A B C D E F G H I J K L M N O P Q R S T U V W X Y Z

Brave Saint Saturn - Resistor tab

Artist: brave Saint Saturn
Song: Resistor
Album: So Far From Home

standard tuning; h= hammer, p= pull off

intro/chorus (rpt as necessary)
e|------------------------------/-------------------------------|
 |---1-------1h3-1-0-----1---1--/----1-------1h3-1-0-----1---1--|
 |-----2-------------0-----2----/------2-------------0-----2----|
 |---------2-----------3--------/--2-------2-----------3--------|
 |-3-----2----------------------/3-------2----------------------|
E|------------------------------/-------------------------------|

verses (rpt till chorus)
e|---------------------------------|
 |---------------------1-------1---|
 |-----0-------0-----2---2---2---2-|
 |---2---2---0---0-2-------3-------|
 |-3-------2-----------------------|
E|---------------------------------|
Tap to rate this tab
# A B C D E F G H I J K L M N O P Q R S T U V W X Y Z