Song name
# A B C D E F G H I J K L M N O P Q R S T U V W X Y Z

Bravo All Stars - Let Music Heal Your Soul tab

Highlighted       Show chord diagrams
           =====       Song Name: Let Music Heal Your Soul         =====
           -                         =====                             -
           ===== Artist: Aaron Carter, BSB, *NSYNC and The Moffats =====


Hi all! my name is Gonzalo and i from Chile, in south america.
This's a really beautiful song, easiest for begginers. The other tabs are not ok,
so i decide make my own tab.
I Think sounds ok! i hope u like it!


=== [TUNING: Standard, with CAPO on 1st fret] ===


 CHORDS:  EADGBE
          
  Bm     [224432]
  Am     [x02210]
  C      [032010]
  D      [xx0232]
  Dsus4  [xx0233]
  Em     [02200x]
  G      [320033]
  Esus4  [x22200]


Ok here we go!


 INTRO:


|      G        |        D        |       Em       |        Bm         |

E --3--------3------2--------2--------0--------0------2--------2-------|
B --------3---------------3-----------------0---------------3----------|
G ---------------------------------------------------------------------|
D ---------------------------------------------------------------------|
A -----2---------------0-----------------2---------------2-------------|
E ---------------------------------------------------------------------|


|      C        |        G        |       Am       |      Dsus4 D      |

E --0--------0------3--------3--------0--------0--------3------2-------|
B --------1---------------3-----------------1-----------3------3-------|
G ---------------------------------------------------------------------|
D ---------------------------------------------------------------------|
A -----3---------------2-----------------0-----------------------------|
E ---------------------------------------------------------------------|


 VERSE:    G D Em Bm
           C G Am Dsus4 D (2X)


 PRE CHORUS:    Em Bm C Am D


 CHORUS:    G D C Dsus4 D
            G D C Dsus4 D
            Em Bm C Am D


 BRIGDE:    G D C D (4x)
            Em


 MODULE:    A E D Esus4 E (Many times)
Tap to rate this tab
# A B C D E F G H I J K L M N O P Q R S T U V W X Y Z