Song name
# A B C D E F G H I J K L M N O P Q R S T U V W X Y Z

Brazen Abbot - More Than Money tab

-------------------------------------------------------------------------------
		    More Than Money - by Brazen Abbot
-------------------------------------------------------------------------------
Tabbed by: Andy (yalaki)
Email: yalaki@hotmail.com


Great song on the 2005 album "My Resurrection". This is a great song to play.
I have tabbed the rhythm guitar only - no lead guitar.

Any questions/comments etc, email yalaki@hotmail.com


Tuning: Whole Step Under

******
Intro:
******

d|---------------------|----------------------|
A|---------------------|----------------------|
F|----2--2-------------|---2--2---------------|
C|----2--2-------------|---2--2---------------|
G|----0--0--3p2-0---0--|---0--0--3p2-0---0----|
D|----------------3----|---------------3------|


d|---------------------|----------------------|
A|---------------------|---3--3---------------|
F|----2--2-------------|---2--2---------------|
C|----2--2-------------|---0--0--0------------|
G|----0--0--3p2-0---0--|-----------3-2-0------|
D|----------------3----|-----------------3----|


d|---------------------|----------------------|
A|---------------------|----------------------|
F|----2--2-------------|---2--2---------------|
C|----2--2-------------|---2--2---------------|
G|----0--0--3p2-0---0--|---0--0--3p2-0---0----|
D|----------------3----|---------------3------|


d|---------------------|----------------------|
A|---------------------|---3--3---------------|
F|----2--2-------------|---2--2---------------|
C|----2--2-------------|---0--0--0------------|
G|----0--0--3p2-0---0--|-----------3-5-3-2-0--|
D|----------------3----|-------------3--------|

Drums come in, the rhythm changes slightly.

d|---------------------|----------------------|
A|---------------------|----------------------|
F|----2--2-------------|---2--2---------------|
C|----2--2-------------|---2--2---------------|
G|----0--0--3p2-0---0--|---0--0--3p2-0---0----|
D|----------------3----|---------------3------|


d|---------------------|----------------------|
A|---------------------|---3--3---------------|
F|----2--2-------------|---2--2---------------|
C|----2--2-------------|---0--0--0------------|
G|----0--0--3p2-0---0--|-----------3-2-0------|
D|----------------3----|-----------------3----|


d|---------------------|----------------------|
A|---------------------|----------------------|
F|----2--2-------------|---2--2---------------|
C|----2--2-------------|---2--2---------------|
G|----0--0--3p2-0---0--|---0--0--3p2-0---0----|
D|----------------3----|---------------3------|


d|---------------------|----------------------|
A|---------------------|---3------------------|
F|----2--2-------------|---2------------------|
C|----2--2-------------|---0-----0---5--------|
G|----0--0--3p2-0---0--|-----------3-5-3-2-0--|
D|----------------3----|-------------3--------|

********
Verse 1:
********

"You wanna run around this big old world..."

d|---------------------------------------------------------------------------|
A|---------------------------------------------------------------------------|
F|---2-------5---7------------7----2-----------------------------------------|
C|---2-------5---7------5-----7----2-----------------------------------------|
G|---0-------3---5------5-----5----0------3p2p0------------------------------|
D|------------------0-2-3-------------3-0-------3-0--------------------------|

d|------------------------------------------5~-------------------------------|
A|---------------------------------------------------------------------------|
F|---2-------5---7------------7----2-----------------------------------------|
C|---2-------5---7------5-----7----2-----------2p0---------------------------|
G|---0-------3---5------5-----5----0--0-3-5--------3-------------------------|
D|------------------0-2-3----------------------------------------------------|

"You're so impressed with material things..."

d|---------------------------------------------------------------------------|
A|---------------------------------------------------------------------------|
F|---2-------5---7------------7----2-----------------------------------------|
C|---2-------5---7------5-----7----2-----------------------------------------|
G|---0-------3---5------5-----5----0------3p2p0------------------------------|
D|------------------0-2-3-------------3-0-------3-0--------------------------|

d|---------------------------------------------------------------------------|
A|---------------------------------------------------------------------------|
F|---2-------5---7------------7---------7----------7--------------2----------|
C|---2-------5---7------5-----7----5----7----5-5---7--------------0----------|
G|---0-------3---5------5-----5----5----5----5-5---5--3-2-0-------0----------|
D|------------------0-2-3----------3---------3-3------------3-2-0------------|


*******
Chorus:
*******

"I've got more than money..."

d|-------------------------------|-------------------------------------------|
A|-------------------------------|-------------------------------------------|
F|------7----2-------------------|-------7---2-------------------------------|
C|--5---7----2-------------------|---5---7---2--2-2--0-2p0-------------------|
G|--5---5----0--0-----0----------|---5---5---0--0-0--------3-0---------------|
D|--3-------------2-0----2-0-----|---3---------------------------------------|

d|-------------------------------|-------------------------------------------|
A|-------------------------------|-------------------------------------------|
F|------7----2-------------------|----------------------7--------------------|
C|--5---7----2-------------------|---5-----5-----5------7------0--2--0-------|
G|--5---5----0--0-----0----------|---5--5--5--5--5--5---5------0--0--0-------|
D|--3-------------2-0----2-0-----|---3--5--3--5--3--5---5--------------------|


********
Verse 1:
********

"So fascinated with celebrity..."

d|---------------------------------------------------------------------------|
A|---------------------------------------------------------------------------|
F|---2-------5---7------------7----2-----------------------------------------|
C|---2-------5---7------5-----7----2-----------------------------------------|
G|---0-------3---5------5-----5----0------3p2p0------------------------------|
D|------------------0-2-3-------------3-0-------3-0--------------------------|

d|------------------------------------------5~-------------------------------|
A|---------------------------------------------------------------------------|
F|---2-------5---7------------7----2-----------------------------------------|
C|---2-------5---7------5-----7----2-----------2p0---------------------------|
G|---0-------3---5------5-----5----0--0-3-5--------3-------------------------|
D|------------------0-2-3----------------------------------------------------|

"And when you finally get your name up in lights..."

d|---------------------------------------------------------------------------|
A|---------------------------------------------------------------------------|
F|---2-------5---7------------7----2-----------------------------------------|
C|---2-------5---7------5-----7----2-----------------------------------------|
G|---0-------3---5------5-----5----0------3p2p0------------------------------|
D|------------------0-2-3-------------3-0-------3-0--------------------------|

d|---------------------------------------------------------------------------|
A|---------------------------------------------------------------------------|
F|---2-------5---7------------7---------7----------7--------------2----------|
C|---2-------5---7------5-----7----5----7----5-5---7--------------0----------|
G|---0-------3---5------5-----5----5----5----5-5---5--3-2-0-------0----------|
D|------------------0-2-3----------3---------3-3------------3-2-0------------|


*******
Chorus:
*******

"I got more than money..."

d|-------------------------------|-------------------------------------------|
A|-------------------------------|-------------------------------------------|
F|------7----2-------------------|-------7---2-------------------------------|
C|--5---7----2-------------------|---5---7---2--2-2--0-2p0-------------------|
G|--5---5----0--0-----0----------|---5---5---0--0-0--------3-0---------------|
D|--3-------------2-0----2-0-----|---3---------------------------------------|

d|-------------------------------|-------------------------------------------|
A|-------------------------------|-------------------------------------------|
F|------7----2--------2----------|---------------4-----5-----7-----9---------|
C|--5---7----2-----------4-2-----|---5-----7-----4--4--5--5--7--7--9--9------|
G|--5---5----0--0----------------|---5--5--7--7--2--4--3--5--5--7--7--9------|
D|--3-------------2-0------------|---3--5--5--7-----2-----3-----5-----7------|


*******************
Piano/Guitar Solos:
*******************

During the piano solo, Nik plays something like:

d|-------------------------------|-------------------------------------------|
A|-------------------------------|-------------------------------------------|
F|-------------------------------|-------------------------------------------|
C|--2--3-0--0--------------------|--2--3-0--0--------------------------------|
G|------------2---x-2---0-2---0--|------------2----0-2-2h3h5p2-0-2-----------|
D|--------------------4-----3----|---------------4---------------------------|

d|----------------------------------------|----------------------------------|
A|----------------------------------------|----------------------------------|
F|----------------------------------------|----------------------------------|
C|--2--3-0--0-----------------------------|--2--3-0--0-------2------0--------|
G|------------2---x-2---0-2-2h3h5p2p0-----|------------2---x------0----------|
D|--------------------4-------------------|---------------------4-----1~-0---|

d|-------------------------------|-------------------------------------------|
A|-------------------------------|-------------------------------------------|
F|-------------------------------|-------------------------------------------|
C|--2--3-0--0--------------------|--2--3-0--0--------------------------------|
G|------------2-----0-2-3-2------|------------2----0-2-3-5-------------------|
D|----------------4---------3-1--|---------------4---------5~-0--------------|

d|-------------------------------------|-------------------------------------|
A|-------------------------------------|-------------------------------------|
F|-------------------------------------|-------------------------------------|
C|--2--3-0--0--------------------------|--2--3-0--0--------------------------|
G|------------2-----0-2---2h3p2p0-2-3--|------------2----0-2-3-2-------------|
D|----------------4--------------------|---------------4---------1-----------|

Then during the guitar solo, the rhythm guitar plays something like:

d|-------------------------------------|-------------------------------------|
A|-------------------------------------|-------------------------------------|
F|-------------------------------------|--------------------------------2~---|
C|--4-----5-----5-----2-----7---7------|----4-----5-----5-----2--------------|
G|--4-----5-----5-----2-----7---7------|----4-----5-----5-----2--------------|
D|--2-2-2-3-3-3-3-3-3-0-0-0-5-0-5-0----|----2-2-2-3-3-3-3-3-3-0-0-0-0-0-0----|

d|-------------------------------------|-------------------------------------|
A|-------------------------------------|-------------------------------------|
F|-------------------------------------|-------------------------------------|
C|--4-----5-----5-----2-----7---7------|----4--------------------------------|
G|--4-----5-----5-----2-----7---7------|----4---4-3-2-------4-3-2-----0-0----|
D|--2-2-2-3-3-3-3-3-3-0-0-0-5-0-5-0----|----2-2-------2-2-2-------4---0-0----|

d|-------------------------------------|-------------------------------------|
A|-------------------------------------|-------------------------------------|
F|-------------------------------------|--------------------------------2~---|
C|--4-----5-----5-----2-----7---7------|----4-----5-----5-----2--------------|
G|--4-----5-----5-----2-----7---7------|----4-----5-----5-----2--------------|
D|--2-2-2-3-3-3-3-3-3-0-0-0-5-0-5-0----|----2-2-2-3-3-3-3-3-3-0-0-0-0-0-0----|

d|-------------------------------------|-------------------------------------|
A|-------------------------------------|-------------------------------------|
F|-------------------------------------|-------------------------------------|
C|--4-----5-----5-----2-----7---7------|----4--------------------------------|
G|--4-----5-----5-----2-----7---7------|----4---4-3-2-------4-3-2-----0-0----|
D|--2-2-2-3-3-3-3-3-3-0-0-0-5-0-5-0----|----2-2-------2-2-2-------5---0-0----|

*******
Bridge:
*******


"I got a feeling you got it too..."

d|---------------------|----------------------|
A|---------------------|----------------------|
F|----2--2-------------|---2--2---------------|
C|----2--2-------------|---2--2---------------|
G|----0--0--3p2-0---0--|---0--0--3p2-0---0----|
D|----------------3----|---------------3------|


d|---------------------|----------------------|
A|---------------------|----------------------|
F|----2--2-------------|----------------------|
C|----2--2-------------|---5------------------|
G|----0--0--3p2-0---0--|---5---5-3-2-----0----|
D|----------------3----|---3---------5-3------|

"It's in your hear, it's in your soul..."

d|---------------------|----------------------|
A|---------------------|----------------------|
F|----2--2-------------|---2--2---------------|
C|----2--2-------------|---2--2---------------|
G|----0--0--3p2-0---0--|---0--0--3p2-0---0----|
D|----------------3----|---------------3------|


d|---------------------|----------------------|
A|---------------------|----------------------|
F|----2--2-------------|----------------------|
C|----2--2-------------|---5------------------|
G|----0--0--3p2-0---0--|---5---5-3-2-------0--|
D|----------------3----|---3---------5-2-3----|

"More than money..."

d|---------------------|----------------------|
A|---------------------|----------------------|
F|----2--2-------------|---2--2---------------|
C|----2--2-------------|---2--2---------------|
G|----0--0--3p2-0---0--|---0--0--3p2-0---0----|
D|----------------3----|---------------3------|

d|---------------------|----------------------|
A|---------------------|---3--3---------------|
F|----2--2-------------|---2--2---------------|
C|----2--2-------------|---0--0--0------------|
G|----0--0--3p2-0---0--|-----------3-2-0------|
D|----------------3----|-----------------3----|

d|---------------------|----------------------|
A|---------------------|----------------------|
F|----2--2-------------|---2--2---------------|
C|----2--2-------------|---2--2---------------|
G|----0--0--3p2-0---0--|---0--0--3p2-0---0----|
D|----------------3----|---------------3------|

d|---------------------|----------------------|
A|---------------------|---3--3---------------|
F|----2--2-------------|---2--2---------------|
C|----2--2-------------|---0--0--0---5--------|
G|----0--0--3p2-0---0--|-----------3-5-3-2-0--|
D|----------------3----|-------------3--------|

*******
Chorus:
*******

"I've got more than money..."

d|-------------------------------|-------------------------------------------|
A|-------------------------------|-------------------------------------------|
F|------7----2-------------------|-------7---2-------------------------------|
C|--5---7----2-------------------|---5---7---2--2-2--0-2p0-------------------|
G|--5---5----0--0-----0----------|---5---5---0--0-0--------3-0---------------|
D|--3-------------2-0----2-0-----|---3---------------------------------------|

d|-------------------------------|-------------------------------------------|
A|-------------------------------|-------------------------------------------|
F|------7----2--------2----------|-------------------------------------------|
C|--5---7----2-----------4-2-----|---5-----5-----5---------------------------|
G|--5---5----0--0----------------|---5--5--5--5--5--5------------------------|
D|--3-------------2-0------------|---3--5--3--5--3--5------------------------|

"More than money..."

d|-------------------------------|-------------------------------------------|
A|-------------------------------|-------------------------------------------|
F|------7----2-------------------|-------7---2-------------------------------|
C|--5---7----2-------------------|---5---7---2--2-2--0-2p0-------------------|
G|--5---5----0--0-----0----------|---5---5---0--0-0--------3-0---------------|
D|--3-------------2-0----2-0-----|---3---------------------------------------|

d|-------------------------------|-------------------------------------------|
A|-------------------------------|-------------------------------------------|
F|------7----2--------2----------|---------------4-----5-----7-----9---------|
C|--5---7----2-----------4p2p0---|---5-----7-----4--4--5--5--7--7--9--9------|
G|--5---5----0----0--------------|---5--5--7--7--2--4--3--5--5--7--7--9------|
D|--3-----------2---2------------|---3--5--5--7-----2-----3-----5-----7------|


d|---------------------------------------------------------------------------|
A|---------------------------------------------------------------------------|
F|-------------------------------------------------------------2-------------|
C|---------------------------------------7---------------------2-------------|
G|--3-0---0----x-3-0---0---x-3-0---0---3-5-----------3-0---0---0-------------|
D|------3------------3-----------3-----------------------3-------------------|



| /  slide up
| \  slide down
| h  hammer-on
| p  pull-off
| ~  vibrato
| +  harmonic
| x  Mute note
| b  Bend note
| r  Release bend
| pb Prebend note
===============================================================================
Tap to rate this tab
# A B C D E F G H I J K L M N O P Q R S T U V W X Y Z