Song name
# A B C D E F G H I J K L M N O P Q R S T U V W X Y Z

Brazzaville - Anabel2 tab

Capo on the 3rd fret


Am    Em     Am       G
 Last night meant so much to me
C    G           C              Em
 Downtown by the crumbling sea wall
 The first kiss took me back to 1983
 Laid out with the thrill of it all
 Anabel


Airports feel like home to me
Glass walls looking out at the planes
Food courts and police controls
A soft voice coming though the PA
Anabel


Anabel
Light blue walls in cheap hotels


-1-1-1-1-1-3-1--3-3-3-3-3-5-3-1-0h1p0---------------------0-1-0-------------|
--------------------------------------3-1-0---------0-1-3-------3-1-0-----0-|
---------------------------------------------2----2---------------------2---|
----------------------------------------------------------------------------|
----------------------------------------------------------------------------|
----------------------------------------------------------------------------|

----------------|
-0-1-0h1p0------|
-----------2-0--|
----------------|
----------------|
----------------|

Up here at 30,000 feet
Above all the suffering and pain
Hot tea and an inflight magazine
An old boy in a shiny new plane
Anabel


-1-1-1-1-1-3-1--3-3-3-3-3-5-3-1-0----------------------------|
----------------------------------3-1-0-------1-0h1p0--------|
----------------------------------------2--------------2-0-2-|
-------------------------------------------------------------|
-------------------------------------------------------------|
-------------------------------------------------------------|

-5-8-7-5h7p5---0-0-------0-1-3-1-0-----------------------------5-7-5----0-|
-------------6---------3-----------3-1-0-1-0--------1------0-1--------6---|
---------------------------------------------2----2------2----------------|
--------------------------------------------------------------------------|
--------------------------------------------------------------------------|
--------------------------------------------------------------------------|
Tap to rate this tab
# A B C D E F G H I J K L M N O P Q R S T U V W X Y Z