Song name
# A B C D E F G H I J K L M N O P Q R S T U V W X Y Z

Brazzaville - Rainy Night tab

Capo on the 6th fret

Intro:

-------------------------|
-------0-----------------|
-2-2-2---2---------0-----|
-------------3-3-3---3-2-|
-------------------------|
-------------------------|


    Am
 At 14
           F
 He was an adolescent
        G
 Beauty Queen
           Am
 Slamminí speed
     Dm              G
 And working on the NY streets
    Am    F G
 Oh Dear!

 All the boys
 With their leather
 And peroxide
 Rouge on pockmarked cheeks
 Always drifting east

              Am    F
 O templo de querer
              G     Am
 O templo de querer
              Dm    G
 O templo de querer


Mini-solo (without capo):


-6h7-9-7p6------------------6h7-6-----------------|
-----------9-7p6-9--7p6-9---------9-7p6\4--6b7r6--|
--------------------------------------------------|
--------------------------------------------------|
--------------------------------------------------|
--------------------------------------------------|
Tap to rate this tab
 
# A B C D E F G H I J K L M N O P Q R S T U V W X Y Z