Song name
# A B C D E F G H I J K L M N O P Q R S T U V W X Y Z

Bre Morgan - Upside Down tab

http://www.bremorgan.com
http://www.myspace.com/bremorgan

Intro:
e-------------------------------------------------------------------------------------------|
B-------------------------------------------------------------------------------------------|
G---55555555--------------55555555--------------55555555-------------------------55555555---|
D---55555555---55555555---55555555---55555555---55555555---55555555---33333333---55555555---|
A---33333333---55555555---33333333---55555555---33333333---55555555---33333333---33333333---|
E--------------33333333--------------33333333--------------33333333---11111111--------------|

e-------------------------------------------------------------------------------------------|
B-------------------------------------------------------------------------------------------|
G---55555555--------------55555555--------------55555555-------------------------55555555---|
D---55555555---55555555---55555555---55555555---55555555---55555555---33333333---55555555---|
A---33333333---55555555---33333333---55555555---33333333---55555555---33333333---33333333---|
E--------------33333333--------------33333333--------------33333333---11111111--------------|

Verse:
e-----------------------------------------------------------|
B-----------------------------------------------------------|
G---5---5-------5---5-----5---5-----5------------55555555---|
D---5---5-5---5-5---5-5---5---5-5---5-33333333---55555555---|
A---3---3-5---5-3---3-5---3---3-5---3-33333333---33333333---|
E---------3---3-------3---------3-----11111111--------------|

e-------------------------------------------------------------------------------------------|
B-------------------------------------------------------------------------------------------|
G---55555555--------------55555555--------------55555555-------------------------55555555---|
D---55555555---55555555---55555555---55555555---55555555---55555555---33333333---55555555---|
A---33333333---55555555---33333333---55555555---33333333---55555555---33333333---33333333---|
E--------------33333333--------------33333333--------------33333333---11111111--------------|


Chorus:
e-------------------------------------------------------------------------------------|
B-------------------------------------------------------------------------------------|
G--------------55555555--------------55555555--------------55555555---------5---5-----|
D---33333333---55555555---33333333---55555555---33333333---55555555---3---3-5---5-3---|
A---33333333---33333333---33333333---33333333---33333333---33333333---3---3-3---3-3---|
E---11111111--------------11111111--------------11111111--------------1---1-------1---|


Verse:
e-------------------------------------------------------------------------------------------|
B-------------------------------------------------------------------------------------------|
G---55555555--------------55555555--------------55555555-------------------------55555555---|
D---55555555---55555555---55555555---55555555---55555555---55555555---33333333---55555555---|
A---33333333---55555555---33333333---55555555---33333333---55555555---33333333---33333333---|
E--------------33333333--------------33333333--------------33333333---11111111--------------|

e-------------------------------------------------------------------------------------------|
B-------------------------------------------------------------------------------------------|
G---55555555--------------55555555--------------55555555-------------------------55555555---|
D---55555555---55555555---55555555---55555555---55555555---55555555---33333333---55555555---|
A---33333333---55555555---33333333---55555555---33333333---55555555---33333333---33333333---|
E--------------33333333--------------33333333--------------33333333---11111111--------------|

Chorus 2:
e-------------------------------------------------------------------------------------------|
B-------------------------------------------------------------------------------------------|
G--------------55555555--------------55555555--------------55555555---------5---5-------5---|
D---33333333---55555555---33333333---55555555---33333333---55555555---3---3-5---5-3---3-5---|
A---33333333---33333333---33333333---33333333---33333333---33333333---3---3-3---3-3---3-3---|
E---11111111--------------11111111--------------11111111--------------1---1-------1---1-----|

Bridge:
e-------------------------------------------------------------------------------------------|
B-------------------------------------------------------------------------------------------|
G---55555555--------------55555555--------------55555555-------------------------55555555---|
D---55555555---55555555---55555555---55555555---55555555---55555555---33333333---55555555---|
A---33333333---55555555---33333333---55555555---33333333---55555555---33333333---33333333---|
E--------------33333333--------------33333333--------------33333333---11111111--------------|

Verse 3:
e-------------------------------------------------------------------------------------------|
B-------------------------------------------------------------------------------------------|
G---55555555--------------55555555--------------55555555-------------------------55555555---|
D---55555555---55555555---55555555---55555555---55555555---55555555---33333333---55555555---|
A---33333333---55555555---33333333---55555555---33333333---55555555---33333333---33333333---|
E--------------33333333--------------33333333--------------33333333---11111111--------------|

Chorus 3:
e-------------------------------------------------------------------------------------------|
B-------------------------------------------------------------------------------------------|
G--------------55555555--------------55555555--------------55555555--------------55555555---|
D---33333333---55555555---33333333---55555555---33333333---55555555---33333333---55555555---|
A---33333333---33333333---33333333---33333333---33333333---33333333---33333333---33333333---|
E---11111111--------------11111111--------------11111111--------------11111111--------------|

e-------------------------------------------------------------------------------------------|
B-------------------------------------------------------------------------------------------|
G--------------55555555--------------55555555--------------55555555--------------55555555---|
D---33333333---55555555---33333333---55555555---33333333---55555555---33333333---55555555---|
A---33333333---33333333---33333333---33333333---33333333---33333333---33333333---33333333---|
E---11111111--------------11111111--------------11111111--------------11111111--------------|

e------------------------------------------------------------------------------------------------|
B------------------------------------------------------------------------------------------------|
G-----------55555555--------------55555555--------------55555555--------------55555555-----------|
D33333333---55555555---33333333---55555555---33333333---55555555---33333333---55555555---33333333|
A33333333---33333333---33333333---33333333---33333333---33333333---33333333---33333333---33333333|
E11111111--------------11111111--------------11111111--------------11111111--------------11111111|

------------------------------------|
------------------------------------|
---55555555--------------55555555---|
---55555555---33333333---55555555---|
---33333333---33333333---35555555---|
--------------11111111--------------|

Lyrics:

Verse 1:
I take the fall
I lose it all
Then I forget what it's all for yeah
My life is here
Or is it there
I can't remember being anywhere

Chorus 1:
Am I fallin' down (falling down)
It's hard getting up again (up again)
Spinnin' around (round and round)
Am I upside down

Verse 2:
You may be nice
I might think twice and then I
I fall for you got nothin' else to do
Should I back down
And turn around and then I
Leave you behind and lose my mind again

Chorus 2:
Am I falling down (falling down)
It's hard getting up again (up again)
Spinnin' around (round and round)
Am I upside down
Am I upside down

Bridge:
You have one unheard message
First unheard message
Hey this is Bre
Just wanna tell you that I've solved all my problems and I'm moving on
So call me back as soon as you can
Bye

Verse 3:
I take the fall
I lose it all yeah
Then I forget what its all for
Hey

Chorus 3:
Am I fallin' down (falling down)
It's hard getting up again (up again)
Spinnin' around (round and round)
Am I upside down
Am I fallin' down (falling down)
It's hard getting up again (up again)
Spinnin' around (round and round)
Am I upside down
Am I fallin' down (down, down, down)
It's hard getting up again (up again)
Spinnin' around (round and round)
Am I upside down (am I upside down)
Am I upside down (am I upside down)
Am I upside down
Yeah
Tap to rate this tab
# A B C D E F G H I J K L M N O P Q R S T U V W X Y Z